Song name
# A B C D E F G H I J K L M N O P Q R S T U V W X Y Z

Eve 6 - Sunset Strip Bitch tab

One of Eve 6's easier songs.

Intro:
|--------19--------------17--------------17------------|
|------------------------------------------------------|
|--16---------13--14---------13--14--------------------| (x4)
|------------------------------------------------------|
|------------------------------------------------------|
|------------------------------------------------------|


Pre-Verse:
|----------------|
|----------------|
|----------------|
|--7\------------|
|--7\------------|
|--7\------------|


|-------------------------------------------------------------------------------------|
|-----------------------------3-3-3-3-3-3-3-3-----------------------------------------|
|-------------------------------------------------------------------------------------|(x4)
|--0h2----0h2----0h2------------------------------------------------------------------|
|--0h2----0h2----0h2------------------------------------------------------------------|
|--0h2----0h2----0h2------------------------------------------------------------------|


Verse 1:
|-----------------------------------------------------------------------------------------------|
|-----------------------------------------------------------------------------------------------|
|-----------------------------------------------------------------------------------------------|(x2)
|--0h2----2----2----0h2----2----2----0h2----2----2----0h2----2----2----0-0-0--0-0-0-------------|
|--0h2----2----2----0h2----2----2----0h2----2----2----0h2----2----2----0-0-0--0-0-0-------------|
|--0h2----2----2----0h2----2----2----0h2----2----2----0h2----2----2----0-0-0--0-0-0-------------|
pm.................................................................................

*(start to lay off the palm muting on the second time through)


|---------------|
|---------------|
|---------------|
|--7------------|
|--7------------|
|--7------------|


Chorus: (x2)
|----------------------------------------------------------------|
|----------------------------------------------------------------|
|----------------------------------------------------------------|
|--2--2--2--2----0--0--0--0----7--7--7--7----7--7--7--7----------|
|--2--2--2--2----0--0--0--0----7--7--7--7----7--7--7--7----------|
|--2--2--2--2----0--0--0--0----7--7--7--7----7--7--7--7----------|


Post-Chorus:
|-------------------------------------------------------------------------------------------|
|-------------------------------------------------------------------------------------------|
|--5-5-5-5-5-5-5-5--5-5-5-5-5-5-5-5----/7-7-7-7-7-7-7-7--7-7-7-7-7-7-7-7--------------------|
|--5-5-5-5-5-5-5-5--5-5-5-5-5-5-5-5----/7-7-7-7-7-7-7-7--7-7-7-7-7-7-7-7--------------------|
|--3-3-3-3-3-3-3-3--3-3-3-3-3-3-3-3----/5-5-5-5-5-5-5-5--5-5-5-5-5-5-5-5--------------------|
|-------------------------------------------------------------------------------------------|


[optional]
(play this on a second guitar)
|--------------------------------------------------------------------------------------------|
|--------------------------------------------------------------------------------------------|
|--5-5-5-5-5-5-5-5--5-5-5-5-5-5-5-5----5h7-7-7-7-7-7-7-7--7-7-7-7-7-7-7-7--------------------|
|--------------------------------------------------------------------------------------------|
|--------------------------------------------------------------------------------------------|
|--------------------------------------------------------------------------------------------|


Pre-Verse:
|----------------|
|----------------|
|----------------|
|--7\------------|
|--7\------------|
|--7\------------|


|-------------------------------------------------------------------------------------|
|-----------------------------3-3-3-3-3-3-3-3-----------------------------------------|
|-------------------------------------------------------------------------------------|(x4)
|--0h2----0h2----0h2------------------------------------------------------------------|
|--0h2----0h2----0h2------------------------------------------------------------------|
|--0h2----0h2----0h2------------------------------------------------------------------|


Verse 2:
|-----------------------------------------------------------------------------------------------|
|-----------------------------------------------------------------------------------------------|
|-----------------------------------------------------------------------------------------------|(x2)
|--0h2----2----2----0h2----2----2----0h2----2----2----0h2----2----2----0-0-0--0-0-0-------------|
|--0h2----2----2----0h2----2----2----0h2----2----2----0h2----2----2----0-0-0--0-0-0-------------|
|--0h2----2----2----0h2----2----2----0h2----2----2----0h2----2----2----0-0-0--0-0-0-------------|
pm.................................................................................

*(start to lay off the palm muting on the second time through)


|---------------|
|---------------|
|---------------|
|--7------------|
|--7------------|
|--7------------|


Chorus: (x2)
|----------------------------------------------------------------|
|----------------------------------------------------------------|
|----------------------------------------------------------------|
|--2--2--2--2----0--0--0--0----7--7--7--7----7--7--7--7----------|
|--2--2--2--2----0--0--0--0----7--7--7--7----7--7--7--7----------|
|--2--2--2--2----0--0--0--0----7--7--7--7----7--7--7--7----------|


Post-Chorus:
|-------------------------------------------------------------------------------------------|
|-------------------------------------------------------------------------------------------|
|--5-5-5-5-5-5-5-5--5-5-5-5-5-5-5-5----/7-7-7-7-7-7-7-7--7-7-7-7-7-7-7-7--------------------|
|--5-5-5-5-5-5-5-5--5-5-5-5-5-5-5-5----/7-7-7-7-7-7-7-7--7-7-7-7-7-7-7-7--------------------|
|--3-3-3-3-3-3-3-3--3-3-3-3-3-3-3-3----/5-5-5-5-5-5-5-5--5-5-5-5-5-5-5-5--------------------|
|-------------------------------------------------------------------------------------------|


[optional]
(play this on a second guitar)
|--------------------------------------------------------------------------------------------|
|--------------------------------------------------------------------------------------------|
|--5-5-5-5-5-5-5-5--5-5-5-5-5-5-5-5----5h7-7-7-7-7-7-7-7--7-7-7-7-7-7-7-7--------------------|
|--------------------------------------------------------------------------------------------|
|--------------------------------------------------------------------------------------------|
|--------------------------------------------------------------------------------------------|


Pre-Verse:
|----------------|
|----------------|
|----------------|
|--7\------------|
|--7\------------|
|--7\------------|


|-------------------------------------------------------------------------------------|
|-----------------------------3-3-3-3-3-3-3-3-----------------------------------------|
|-------------------------------------------------------------------------------------|(x7)
|--0h2----0h2----0h2------------------------------------------------------------------|
|--0h2----0h2----0h2------------------------------------------------------------------|
|--0h2----0h2----0h2------------------------------------------------------------------|


|--17\--17\--17\~-----|
|---------------------|
|---------------------|
|---------------------|
|---------------------|
|---------------------|


Verse 3:
Gtr 1
|--------19--------------17--------------17------------|
|------------------------------------------------------|
|--16---------13--14---------13--14--------------------| (x4)
|------------------------------------------------------|
|------------------------------------------------------|
|------------------------------------------------------|


Gtr 2
|-----------------------------------------------------------------------------------------------|
|-----------------------------------------------------------------------------------------------|
|-----------------------------------------------------------------------------------------------|
|--0h2----2----2----0h2----2----2----0h2----2----2----0h2----2----2----0-0-0--0-0-0-------------|
|--0h2----2----2----0h2----2----2----0h2----2----2----0h2----2----2----0-0-0--0-0-0-------------|
|--0h2----2----2----0h2----2----2----0h2----2----2----0h2----2----2----0-0-0--0-0-0-------------|
pm.................................................................................


|---------------|
|---------------|
|---------------|
|--7------------|
|--7------------|
|--7------------|

Chorus:
|----------------------------------------------------------------|
|----------------------------------------------------------------|
|----------------------------------------------------------------| (x2)
|--2--2--2--2----0--0--0--0----7--7--7--7----7--7--7--7----------|
|--2--2--2--2----0--0--0--0----7--7--7--7----7--7--7--7----------|
|--2--2--2--2----0--0--0--0----7--7--7--7----7--7--7--7----------|


|----------------------------------------------------------------|
|----------------------------------------------------------------|
|----------------------------------------------------------------| (x2)
|--2--2--2--2----7--7--7--7----0--0--0--0----7--7--7--7----------|
|--2--2--2--2----7--7--7--7----0--0--0--0----7--7--7--7----------|
|--2--2--2--2----7--7--7--7----0--0--0--0----7--7--7--7----------|


Outro: (x2)
|-------------------------------------------------------------------------------------------|
|-------------------------------------------------------------------------------------------|
|--5-5-5-5-5-5-5-5--5-5-5-5-5-5-5-5----/7-7-7-7-7-7-7-7--7-7-7-7-7-7-7-7--------------------|
|--5-5-5-5-5-5-5-5--5-5-5-5-5-5-5-5----/7-7-7-7-7-7-7-7--7-7-7-7-7-7-7-7--------------------|
|--3-3-3-3-3-3-3-3--3-3-3-3-3-3-3-3----/5-5-5-5-5-5-5-5--5-5-5-5-5-5-5-5--------------------|
|-------------------------------------------------------------------------------------------|


[optional]
(play this on a second guitar)
|--------------------------------------------------------------------------------------------|
|--------------------------------------------------------------------------------------------|
|--5-5-5-5-5-5-5-5--5-5-5-5-5-5-5-5----5h7-7-7-7-7-7-7-7--7-7-7-7-7-7-7-7--------------------|
|--------------------------------------------------------------------------------------------|
|--------------------------------------------------------------------------------------------|
|--------------------------------------------------------------------------------------------|
Tap to rate this tab
 
# A B C D E F G H I J K L M N O P Q R S T U V W X Y Z