Song name
# A B C D E F G H I J K L M N O P Q R S T U V W X Y Z

Eve 6 - Jet Pack tab

Intro:
(clean)
|---------------------------------------------------------------------------|
|---------------------------------------------------------------------------|
|--------2----------------2-2---------------2---------------2-2-------------|(x2)
|-----2-----2---------2--------2--------2------2---------2-------2----------|
|--0------------------------------------------------------------------------|
|-----------------2-----------------0----------------0----------------------|


|---------------------------------------------------------------------------------0~------------|
|---------------------------------------------------------------------------------3~------------|
|--------2----------------2-2-----------------2-----------------2--2--------------2~------------|
|-----2-----2---------2--------2----------2------2----------2---------2-----------0~------------|
|--0------------------------------------------------------------------------------0~------------|
|-----------------2------------------4-----------------2----------------------------------------|


Verse 1: (x3)
(clean)
|-----------------------------------------------------------------------------------------------------------|
|--3--x-x-x----------------0--x-x-x----------------------0--x-x-x----3--x-x-x-x-----------------------------|
|--2--x-x-x----2--x-x-x----x--x-x-x----------------------x--x-x-x----2--x-x-x-x----2--x-x-x----2-x-2--------|
|--0--x-x-x----2--x-x-x----4--x-x-x----2-x-2--x-x-x-x----5--x-x-x----0--x-x-x-x----2--x-x-x----2-x-2--------|
|--0--x-x-x----0--x-x-x----4--x-x-x----2-x-2--x-x-x-x----5--x-x-x----0--x-x-x-x----0--x-x-x----0-x-0--------|
|--------------------------4--x-x-x----2-x-2--x-x-x-x----5--x-x-x-------------------------------------------|


Chorus:
|-----------------------------------------------------------------------------------------------------------------|
|-----------------------------------------------------------------------------------------------------------------|
|--5--5-5-5--------------------------------------------5--5-5-5---------------------------------------------------|
|--5--5-5-5----5--5-5-5----3--3-3-3----3--3-3-3--------5--5-5-5----5--5-5-5----3--3-3-3----3--3-3-3---------------|
|--3--3-3-3----5--5-5-5----3--3-3-3----3--3-3-3--------3--3-3-3----5--5-5-5----3--3-3-3----3--3-3-3---------------|
|--------------5--5-5-5----3--3-3-3----3--3-3-3--------------------5--5-5-5----3--3-3-3----3--3-3-3---------------|


|-----------------------------------------------------------------------------------------------------------------|
|-----------------------------------------------------------------------------------------------------------------|
|--5--5-5-5--------------------------------------------5--5-5-5------------------------------------------2~-------|
|--5--5-5-5----5--5-5-5----7--7-7-7----5--5-5-5--------5--5-5-5----5--5-5-5----3--3-3-3----2--2-2-2------2~-------|
|--3--3-3-3----5--5-5-5----7--7-7-7----5--5-5-5--------3--3-3-3----5--5-5-5----3--3-3-3----2--2-2-2------0~-------|
|--------------5--5-5-5----7--7-7-7----5--5-5-5--------------------5--5-5-5----3--3-3-3----2--2-2-2---------------|


Verse 2: (x2)
(clean)
|-----------------------------------------------------------------------------------------------------------|
|--3--x-x-x----------------0--x-x-x----------------------0--x-x-x----3--x-x-x-x-----------------------------|
|--2--x-x-x----2--x-x-x----x--x-x-x----------------------x--x-x-x----2--x-x-x-x----2--x-x-x----2-x-2--------|
|--0--x-x-x----2--x-x-x----4--x-x-x----2-x-2--x-x-x-x----5--x-x-x----0--x-x-x-x----2--x-x-x----2-x-2--------|
|--0--x-x-x----0--x-x-x----4--x-x-x----2-x-2--x-x-x-x----5--x-x-x----0--x-x-x-x----0--x-x-x----0-x-0--------|
|--------------------------4--x-x-x----2-x-2--x-x-x-x----5--x-x-x-------------------------------------------|


Chorus:
|-----------------------------------------------------------------------------------------------------------------|
|-----------------------------------------------------------------------------------------------------------------|
|--5--5-5-5--------------------------------------------5--5-5-5---------------------------------------------------|
|--5--5-5-5----5--5-5-5----3--3-3-3----3--3-3-3--------5--5-5-5----5--5-5-5----3--3-3-3----3--3-3-3---------------|
|--3--3-3-3----5--5-5-5----3--3-3-3----3--3-3-3--------3--3-3-3----5--5-5-5----3--3-3-3----3--3-3-3---------------|
|--------------5--5-5-5----3--3-3-3----3--3-3-3--------------------5--5-5-5----3--3-3-3----3--3-3-3---------------|


|-----------------------------------------------------------------------------------------------------------------|
|-----------------------------------------------------------------------------------------------------------------|
|--5--5-5-5--------------------------------------------5--5-5-5------------------------------------------2~-------|
|--5--5-5-5----5--5-5-5----7--7-7-7----5--5-5-5--------5--5-5-5----5--5-5-5----3--3-3-3----2--2-2-2------2~-------|
|--3--3-3-3----5--5-5-5----7--7-7-7----5--5-5-5--------3--3-3-3----5--5-5-5----3--3-3-3----2--2-2-2------0~-------|
|--------------5--5-5-5----7--7-7-7----5--5-5-5--------------------5--5-5-5----3--3-3-3----2--2-2-2---------------|


Bridge: (x3)
|----------------------------------------------------------------------|
|----------------------------------------------------------------------|
|--------------------------7--7-7-7----7--7-7-7------------------------|
|--7--7-7-7----6--6-6-6----7--7-7-7----7--7-7-7------------------------|
|--7--7-7-7----6--6-6-6----5--5-5-5----5--5-5-5------------------------|
|--7--7-7-7----6--6-6-6------------------------------------------------|


Solo:
(with wah)
|----------------------------------------------------------------------------------------------------------|
|------------------------2h3p2p0-----------2h3p2p0------------------------------2h3p2p0--------------------|
|--2--2--2--2--1h2------------------2~----------------------2--2--2--2--1h2------------------2~------------|
|----------------------------------------------------------------------------------------------------------|
|----------------------------------------------------------------------------------------------------------|
|----------------------------------------------------------------------------------------------------------|


Pre-Chorus:
(clean)
|--------------------------------------------------------------------------------------------------------------------------------|
|--------------------------------------------------------------------------------------------------------------------------------|
|--------2----------------2-2----------------2-----------------2--2---------------------2---------------2-2-----------2~---------|
|-----2-----2---------2--------2----------2-----2----------2---------2---------------2------2--------2-------2--------2~---------|
|--0-----------------------------------------------------------------------------0------------------------------------0~---------|
|-----------------2------------------4-----------------2-----------------------------------------0-------------------------------|


Chorus:
|-----------------------------------------------------------------------------------------------------------------|
|-----------------------------------------------------------------------------------------------------------------|
|--5--5-5-5--------------------------------------------5--5-5-5---------------------------------------------------|
|--5--5-5-5----5--5-5-5----3--3-3-3----3--3-3-3--------5--5-5-5----5--5-5-5----3--3-3-3----3--3-3-3---------------|
|--3--3-3-3----5--5-5-5----3--3-3-3----3--3-3-3--------3--3-3-3----5--5-5-5----3--3-3-3----3--3-3-3---------------|
|--------------5--5-5-5----3--3-3-3----3--3-3-3--------------------5--5-5-5----3--3-3-3----3--3-3-3---------------|


|-----------------------------------------------------------------------------------------------------------------|
|-----------------------------------------------------------------------------------------------------------------|
|--5--5-5-5--------------------------------------------5--5-5-5---------------------------------------------------|
|--5--5-5-5----5--5-5-5----7--7-7-7----5--5-5-5--------5--5-5-5----5--5-5-5----3--3-3-3----5--5-5-5---------------|
|--3--3-3-3----5--5-5-5----7--7-7-7----5--5-5-5--------3--3-3-3----5--5-5-5----3--3-3-3----5--5-5-5---------------|
|--------------5--5-5-5----7--7-7-7----5--5-5-5--------------------5--5-5-5----3--3-3-3----5--5-5-5---------------|


Outro:
|-----------------------------------------------------------------------------------------------------------------|
|-----------------------------------------------------------------------------------------------------------------|
|--5--5-5-5--------------------------------------------5--5-5-5---------------------------------------------------|
|--5--5-5-5----5--5-5-5----3--3-3-3----3--3-3-3--------5--5-5-5----5--5-5-5----3--3-3-3----3--3-3-3---------------|
|--3--3-3-3----5--5-5-5----3--3-3-3----3--3-3-3--------3--3-3-3----5--5-5-5----3--3-3-3----3--3-3-3---------------|
|--------------5--5-5-5----3--3-3-3----3--3-3-3--------------------5--5-5-5----3--3-3-3----3--3-3-3---------------|


|-----------------------------------------------------------------------------------------------------------------|
|-----------------------------------------------------------------------------------------------------------------|
|--5--5-5-5--------------------------------------------5--5-5-5------------------------------------------2~-------|
|--5--5-5-5----5--5-5-5----7--7-7-7----5--5-5-5--------5--5-5-5----5--5-5-5----3--3-3-3----2--2-2-2------2~-------|
|--3--3-3-3----5--5-5-5----7--7-7-7----5--5-5-5--------3--3-3-3----5--5-5-5----3--3-3-3----2--2-2-2------0~-------|
|--------------5--5-5-5----7--7-7-7----5--5-5-5--------------------5--5-5-5----3--3-3-3----2--2-2-2---------------|


[Optional]
This can be played on a second guitar throughout the outro:
(with wah)
|--7h8--8~----8~----8~-----------------|
|--------------------------------------|
|--------------------------------------|
|--------------------------------------|
|--------------------------------------|
|--------------------------------------|

End with:
(with wah)
|--------------------------------------|
|--5h6p3~------------------------------|
|--------------------------------------|
|--------------------------------------|
|--------------------------------------|
|--------------------------------------|
Tap to rate this tab
 
# A B C D E F G H I J K L M N O P Q R S T U V W X Y Z