Song name
# A B C D E F G H I J K L M N O P Q R S T U V W X Y Z

Eve 6 - Jesus Nitelite tab

JESUS NITELITE - eve 6
"EVE 6"
Tuning:Standard (EADGBe)

Part I:
    B  G  D  A
e|--------------|
B|--------------|
G|--------7-----|
D|--9--5--7--7--|
A|--9--5--5--7--|
E|--7--3-----5--|

PART II:
    B  G  D
e|-----------|
B|-----------|
G|--------7--|
D|--9--5--7--|
A|--9--5--5--|
E|--7--3-----|

PART III:
    A  C  F
e|-----------|
B|-----------|
G|-----5-----|
D|--7--5--3--|
A|--7--3--3--|
E|--5-----1--|

Thats the *BASIC* rhythm to this song. it is a bit more intricate than this...
Tap to rate this tab
 
# A B C D E F G H I J K L M N O P Q R S T U V W X Y Z