Song name
# A B C D E F G H I J K L M N O P Q R S T U V W X Y Z

Eve 6 - Hokis tab

Tune it down almost one step to get the best effect.

A
e|---------------------------------------------------------------------------|
B|---------------------------------------------------------------------------|
G|---------------------------------------------------------------------------|
D|---4--4---4-7--7--7-6--6--6-9--7--7----------------------------------------|
A|----4----4---7---7---7---7---9--7------------------------------------------|
E|--2--2--2--5--5-5--0--0-0--7--7--5-----------------------------------------|


B 

e|---------------------------------------------------------------------------|
B|---------------------------------------------------------------------------|
G|-------------4464--------------4444----------------------------------------|
D|-44434--2-22-4464-44434--2-22--4444----------------------------------------|
A|-44434--2-22-2242-44434--2-22--2222----------------------------------------|
E|-22212--0-00------22212--0-00----------------------------------------------|

e|---------------------------------------------------------------------------|
B|---------------------------------------------------------------------------|
G|-------------4464--------------4444----------------------------------------|
D|-44434--2-22-4464-44434--2-22--4444-4--------------------------------------|
A|-44434--2-22-2242-44434--2-22--2222-4--------------------------------------|
E|-22212--0-00------22212--0-00-------2--------------------------------------|


C
e|---------------------------------------------------------------------------|
B|---------------------------------------------------------------------------|
G|--6-6666662-222222--------4-444444-----------------------------------------|
D|--6-6666662-2222222-2222224-444444-----------------------------------------|
A|--4-4444440-0000002-2222222-222222-----------------------------------------|
E|------------------0-000000-------------------------------------------------|


That's the main deal you'll need.  It's easy to figure out the other variations
in the bridges, the solo, etc.  Great song.
Tap to rate this tab
# A B C D E F G H I J K L M N O P Q R S T U V W X Y Z