Song name
# A B C D E F G H I J K L M N O P Q R S T U V W X Y Z

Eve 6 - Hey Montana tab

Help us improve GuitareTab! Take a short survey!
3/4 time

Intro and Verses
e---0-----0-0-0--|-0-----0-0-0--|-0-----0-0-0--|
B---0-----0-0-0--|-0-----0-0-0--|-3-----3-3-3--|
G---0-----0-0-0--|-2-----2-2-2--|-2-----2-2-2--|
D---2-----2-2-2--|-2-----2-2-2--|-0-----0-0-0--|
A---2-----2-2-2--|-0-----0-0-0--|--------------|
E---0-----0-0-0--|--------------|--------------|
    1 + 2 + 3 +    1 + 2 + 3 +    1 + 2 + 3 +

e---0-----0-0-0--|-0-----0-0-0--|-0-----0-0-0--|
B---0-----0-0-0--|-0-----0-0-0--|-0-----0-0-0--|
G---0-----0-0-0--|-2-----2-2-2--|-0-----0-0-0--|
D---2-----2-2-2--|-2-----2-2-2--|-2-----2-2-2--|
A---2-----2-2-2--|-0-----0-0-0--|-2-----2-2-2--|
E---0-----0-0-0--|--------------|-0-----0-0-0--|
    1 + 2 + 3 +    1 + 2 + 3 +    1 + 2 + 3 +

Chorus
e---0-----0-0-0--|-0-----0-0-0--|-0-----0-0-0--|-0-----0-0-0--|
B---1-----1-1-1--|-0-----0-0-0--|-0-----0-0-0--|-0-----0-0-0--|
G---0-----0-0-0--|-2-----2-2-2--|-0-----0-0-0--|-0-----0-0-0--|
D---2-----2-2-2--|-2-----2-2-2--|-2-----2-2-2--|-2-----2-2-2--|
A---3-----3-3-3--|-0-----0-0-0--|-2-----2-2-2--|-2-----2-2-2--|
E----------------|--------------|-0-----0-0-0--|-0-----0-0-0--|
    1 + 2 + 3 +    1 + 2 + 3 +    1 + 2 + 3 +    1 + 2 + 3 +
Related for Hey Montana tab