Song name
# A B C D E F G H I J K L M N O P Q R S T U V W X Y Z

Eve 6 - Superhero Girl tab

SUPERHERO GIRL - eve 6
"EVE 6"
Tuning:Standard (EADGBe)

INTRO
e|--------------|
B|--------------|
G|-----2/3\2\0--|
D|--2--2/3\2\0--|
A|--2--0/1\0\0--|
E|--0-----------|

VERSE:
e|-------------------|
B|-------------------|
G|-----2-------------|
D|--2--2--(INTROx2)--|
A|--2--0-------------|
E|--0----------------|

PRECHORUS:
e|----------------------------------|
B|----------------------------------|
G|----2-----2-----2-----2-----2--5--|
D|-2--2--2--2--2--2--2--2--2--2--5--|
A|-2--0--2--0--2--0--2--0--2--0--3--|
E|-0-----0-----0-----0-----0--------|

CHORUS:
e|-----------------------------------|
B|-----------------------------------|
G|--------5--------5-----------3-----|
D|--3--5--5--3--5--5--3--5--7--3--3--|
A|--3--5--3--3--5--3--3--5--7--1--3--|
E|--1--3-----1--3-----1--3--5-----1--|

BRIDGE:
e|-------------------------|--------------------------|
B|-------------------------|--------------------------|
G|-----2/3-----2/3\2\0-(x4)|-----4/5-----4/5\4\2------|
D|--2--2/3--2--2/3\2\0-----|--4--4/5--4--4/5\4\2-(x2)-|
A|--2--0/1--2--0/1\0\0-----|--4--2/3--4--2/3\2\0------|
E|--0-------0--------------|--2-------2---------------|
Tap to rate this tab
 
# A B C D E F G H I J K L M N O P Q R S T U V W X Y Z