Song name
# A B C D E F G H I J K L M N O P Q R S T U V W X Y Z

Eve 6 - Theres A Face tab

THERE'S A FACE - eve 6
"EVE 6"
Tuning:Standard (EADGBe)

VERSE:
    A  E  D  E
e|--------------|
B|--------------|
G|--------7-----|
D|--7--2--7--2--|
A|--7--2--5--2--|
E|--5--0-----0--|

CHORUS:
    D  A  G  A  D  A  G
e|-----------------------|
B|-----------------------|
G|--7-----------7--------|
D|--7--7--5--7--7--7--5--|
A|--5--7--5--7--5--7--5--|
E|-----5--3--5-----5--3--|

Tap to rate this tab
# A B C D E F G H I J K L M N O P Q R S T U V W X Y Z