Song name
# A B C D E F G H I J K L M N O P Q R S T U V W X Y Z

Even If Youre God - Lets Do Things We Usually Often Dont Do tab

EVEN IF YOU´RE GOD - Lets do things we usually often don't do

Intro
|-------------------------------------------------------------X-------|
|-------------------------------------------------------------X-------|
|-------------------------------------------------------------X-------|
|-------------------------------------------------------------X-------|
|------------------------------------------3^-----------------X-------| x4
|--0-0-0-0-0-0---0---0---0-0-0---000--000--------0-0-0-0-0-0--X-------|

Pre-Vers
|------------------------------------------------------------------|
|------------------------------------------------------------------|
|------------------------------------------------------------------|
|------------------------------------------------------------------|
|------------------------------------------------------------------| x2
|-000-000-000-000-000-000-000-000-000-000-000-000-000-000-000-000--|

Vers Part1
|-----------------------------------------------------------------|
|-----------------------------------------------------------------|
|------------12/14-14-----------15/14-14--12/14/15/17\15\14-------|
|-------------X/-X--X------------X/X--X----X--X--X--X--X--X-------|
|------------10/12-12-----------13/12-12--10/12/13/15\13\12-------| x4
|--0--0--0-------------0--0--0------------------------------------|

Vers Part2
|----------------------------------------------------------------------|
|----------------------------------------------------------------------|
|------------14--14-----------15--15-----------14--15--17--15--14--14--|
|----------------------------------------------------------------------|
|--------------12---------------13---------------12--13--15--13--12----| x2
|--0--0--0-----------0--0--0----------0--0--0--------------------------| 

Ref Part1                                               2nd time
|---------------------------------------------|----------------------|
|---------------------------------------------|----------------------|
|---------------------------------------------|----------------------|
|----------------------------7~--7-7-7-5-5-3--|--7~-----5~-----------|
|---5--0h7-0h8-0h10-0h8-7h8--5~---------------|--5~-----3~-----------| x2
|-0-------------------------------------------|------0---------------|

Ref Part2
|---------------------------|
|---------------------------|
|---------------------------|
|--5~----3~-----3~------1~--|
|--3~----1~-----3~------1~--| x2
|---------------3~------1~--|
Tap to rate this tab
# A B C D E F G H I J K L M N O P Q R S T U V W X Y Z