Song name
# A B C D E F G H I J K L M N O P Q R S T U V W X Y Z

Ever We Fall - No Words To Describe tab

Ok, this is my first tab. I'm not sure if it is completely correct but it sounds close.
you figure out how to play a part I did not put in or find a correct way to play what I
please e-mail me: mismatch@live.com. One part of the song I need is the mini guitar 
they do in the verses.

Tuning: Drop D


Intro:
-------------------------------------|
-7-8-9-------11-11-------11-11-------|
-------14-14-------14-14-------14-14-|   (x1)
-------------------------------------|
-------------------------------------|
-------------------------------------|

Verse:
------------------------------------|
11-11-------11-11-------11-11-------|
------14-14-------14-14-------14-14-|    (Connect the Verse with the Intro
------------------------------------|     but don't repeat the intro. Do
------------------------------------|     the verse until the chorus)
------------------------------------|

(Stop playing for 5 seconds and then start chorus)

Chorus:
--------------------------------|
--------------------------------|
--------------------------------|
-141414141414141414141414141414-|
-121212121212121212121212121212-|
-121212121212121212121212121212-|

After Chorus:
----------------------------------------------------|
----------------------------------------------------|
----------------------------------------------------|   (x7)
----------14-14-9-9-----------------14-14-9-9-------|
11--15-15-----------------11--15-15-----------------|
----------------------------------------------------|

10-10-------10-10-------10-10-------|
------13-13-------13-13-------13-13-|
------------------------------------|   (x6)
------------------------------------|
------------------------------------|
------------------------------------|

Chorus:
--------------------------------|
--------------------------------|
--------------------------------|
-141414141414141414141414141414-|
-121212121212121212121212121212-|
-121212121212121212121212121212-|


Hope this helps! The only thing I'm not sure about is the chorus. If you figure it out,
do email me it. Also the mini guitar solo's.
Tap to rate this tab
 
# A B C D E F G H I J K L M N O P Q R S T U V W X Y Z