Guitaretab - guitar tabs
Song name
# A B C D E F G H I J K L M N O P Q R S T U V W X Y Z

Ever We Fall - Three Wires In tab

Ever We Fall
Three Wires In


pretty simple..

(0:00-23)
|-----------|----------|
|-----------|----------|
|---0-9-----|-9999~----|
|--7-7-7-7--|-7777~----|
|-6-----6---|-6666~----|
|-----------|----------|

(0:23-46)
|----------------------------17----------------------------------|
|-555555--------5555555---20----555555---------------------------|
|-555555--------5555555---------555555---------------------------|
|-333333--------3333333---------333333-----7---5--2h3--00-0-0----|
|----------------------------------------0---0---0-----00-0-0----|
|--------7-10-0----------------------------------------00-0-0----|
					 .   .   .


this is played in different orders throughout 0:46-1:15 but it aint hard to figure out the order.

|-------12----------12-----------12-12-------|
|---------13----------15--------------15-----|
|-----------14----------13--------------13---|
|-00-0-0------88-8-8-------88-8-8------------|
|-00-0-0------88-8-8-------88-8-8------------|
|-00-0-0------88-8-8-------88-8-8------------|


(1:15-1:30)
|--0--------------------|
|------5----555555------|
|-4-4-5-5---555555------|	x4
|-----------333333------|
|-----------------------|
|-----------------------|

[ Tab from: http://www.guitaretab.com/e/ever-we-fall/80484.html ]
(1:30-2:00)
|----------------------------17--------------------------------|
|-555555--------5555555---20----555555-----------------5555----|
|-555555--------5555555---------555555-----------------5555----|	
|-333333--------3333333---------333333-----7---5--2h3--3333----|
|----------------------------------------0---0---0-------------|
|--------7-10-0------------------------------------------------|
					 .   .   .

(2:00-2:15)
|--0--------------------|
|------5----555555------|
|-4-4-5-5---555555------|	x4
|-----------333333------|
|-----------------------|
|-----------------------|


(2:15-2:33)
|--0-------------------0-----------------------------|
|------5-5-----------------5-5-----------------------|
|-4-4-5-5-------------4-4-5-5------------------------|
|----------5555-5555-----------5555-10101010---------|
|----------5555-5555-----------5555-10101010-(10's)--|
|----------5555-5555-----------5555-10101010---------|


(2:33-3:00)
|-----------------------------------------|
|-----------------555555-----555555-------|
|-----------------333333-----333333-------| X4
|--777-888----000-333333-000-333333-------|
|--777-888----000--------000--------------|
|--777-888----000--------000--------------|
	      ...        ...


this lick played at 3:00-29 over some rhythm
|---11-8--|
|-9-------|
|---------|
|---------|
|---------|
|---------|

(3:30-4:08)
|-------------------------------------------|
|----------555555-----555555----------------|
|----------333333-----333333----------------|X4
|------000-333333-000-333333--777-101010----|
|------000--------000---------777-101010----|
|------000--------000---------777-101010----|


Related for Three Wires In tab
Advertisement will be closed in 10 seconds