Song name
# A B C D E F G H I J K L M N O P Q R S T U V W X Y Z

Ever We Fall - Bring Em In Billy tab

Ever We Fall
Bring Em' In Billy

Intro
|---------4---4-|
|-2-----2---2---|
|---4-----------|
|-----5---------|
|---------------|
|---------------|

Verse 
|------7p0-----------------------7p0-------------------------|
|-9999----9p0-9999----------9999----9p0-9999--9h10p9----10p9-|
|------------------------------------------------------------|
|-7777--------7777----------7777--------7777---------7h8-----|
|------------------444-4/5-----------------------------------|
|------------------222-2/3-----------------------------------|
	 	   ...

chorus
|---------------|
|-----9---------|
|---------------|
|-6h7---6h7p6---|
|---------------|
|---------------|


verse
chorus



1:46
|-4-4-777-555-444-4-4-444--|
|--5---------------5--555--|
|--------------------------|
|--------------------------|
|--------------------------|
|--------------------------|


2:00
|------------|
|------------|
|------------|
|-6666-2222--|
|-6666-2222--|
|-4444-4444--|


2:26
|-------|-----7-|	|---9--9-|	 
|-----9-|-------|	|-12-12--|		     
|-------|-4-6---|  or	|--------|
|-6-7---|-------|	|--------|
|-------|-------|	|--------|
|-------|-------|	|--------|


chorus


Tap to rate this tab
# A B C D E F G H I J K L M N O P Q R S T U V W X Y Z