Song name
# A B C D E F G H I J K L M N O P Q R S T U V W X Y Z

Everclean - Beautiful Inside tab

This is the MOST CORRECT TAB of this song.  Some pick-up notes are dropped, but they are 
simple enough to figure out listening to the song.

Beautiful Inside
By Everclean

Chords used:
   A  D7 D  E  B  C# A  F#
e-------------------------------|
B--0--0-------------------------|
G--6--6--7--9--4--6-------------|
D--7--7--7--9--4--6--7--4-------|
A--0--5--5--7--2--4--7--4-------|
E--------------------5--2-------|


INTRO:
    A            D7
e------------------------------|
B----------0-------------0-----|
G------6-------------6------6--|   (x2)
D----------------------7-------|
A--0-0-----------5-------------|
E------------------------------|


VERSE:

A              D7   D
 I walk this road
A                   D7                  D
alone and always, I wish that you could see
     A        D7    D
that I am afraid
   D           E
of being who I am
  D                B
I dont wanna disappoint you


PreChorus:

   C#     D         B           E
And its clear now, we can get along,
   C#               D                 D             E
 You felt like me before, ignored and every word is wrong

CHORUS:

   A    C#   D                  B
but I   know who Im supposed to be,
 A                  C#      D              B
Its never been that easy to be someone like me,
  A   C#          D                 B
and I feel theres nothing we should hide,
 C#                D                D            E
 were full of love and understanding beautiful inside

INTRO


VERSE 2:

A            D7   D
 Im holding on
    A                     D7        D
and I am brave as it gets easier to breathe
    A          D7   D
and I can face today
 D                   E
when no ones left behind
 D                    B
and no ones left for wanting


PreChorus:

   C#    D         B           E
And its clear now, we can get along,
   C#               D                 D             E
 You felt like me before, ignored and every word is wrong

CHORUS

BRIDGE:

F#        D                      B
   Well I know how you hold your feelings
F#
 and I know you
        D            E
and I know we can believe

PreChorus:

    C#    D    B          E
Its clear now, we can get along
      C#           D                   D             E         E
Youve felt like me before, ignored and every word is wrooooong

CHORUS


INTRO


OUTRO: (Strum)
      A
e----------------------------------|
B-----0----------------------------|
G-----6----------------------------|
D-----7----------------------------|
A-----0----------------------------|
E-----X----------------------------|
Tap to rate this tab
 
# A B C D E F G H I J K L M N O P Q R S T U V W X Y Z