Guitaretab - guitar tabs
Song name
# A B C D E F G H I J K L M N O P Q R S T U V W X Y Z

Everclean - Beautiful Inside tab

Sons of Provo - Beautiful Inside

Standard tuning

Chords:
E7     (022130)
A      (x02220)
A/D    (xx0220)
A7     (x02020)
F#m    (244222)
Bsus   (x24400)
Bm     (x24432)
D      (xx0232)
C#m    (x46654)

Intro: 
|------------------------------------------------------------|
|------2-0------2---0---2------------2-0------2---0---2------|
|----2------------2----------------2------------2------------|
|-------------0-----------------------------0----------------|
|--0-----------------------------0---------------------------|
|------------------------------------------------------------|

Verse: (w/ muffled strum)

A..          A/D..   A..
   I walk this road alone 
              A/D..
And always, I wish that you could see. 
A..         A/D..      Bm.         E7.
   That I am afraid of being who I am. 
  Bm.                E7.
I don't want to disappoint you. 

     C#m.  D.  Bm.         E7.
It's clear now we can get along. 
       C#m.           D.
You've felt like me before, ignored 
    Bm.           E7.
And every word is wrong. 
    A. A7.  Bm.                 E.
And I  know who I'm supposed to be. 
     A.              A7.     Bm.             E.
It's never been that easy to be someone like me. 
    A. A7.          Bm.               E.
And I  feel there's nothing we should hide 
      C#m.             D.             Bm.       E7
We're full of love and understanding, beautiful    inside. 

Bridge (same as intro): 
|------------------------------------------------------------|
|------2-0------2---0---2------------2-0------2---0---2------|
|----2------------2----------------2------------2------------|
|-------------0-----------------------------0----------------|
|--0-----------------------------0---------------------------|
|------------------------------------------------------------|
[ Tab from: http://www.guitaretab.com/e/everclean/315210.html ]
A..      A/D..
  I'm holding on 
    A..    
And I am brave 
           A/D..     
As it gets easier to breathe. 
A..         A/D.. 
   I can face today. 
      Bm.             E7.
Where no one's left behind 
    Bm.               E7.
And no one's left for wanting. 

     C#m.  D.  Bm.         E7.
It's clear now we can get along. 
       C#m.           D.
You've felt like me before, ignored 
    Bm.           E7.
And every word is wrong. 
    A. A7.  Bm.                 E.
And I  know who I'm supposed to be. 
     A.              A7.     Bm.             E.
It's never been that easy to be someone like me. 
    A. A7.          Bm.               E.
And I  feel there's nothing we should hide 
      C#m.             D.             Bm.       E7
We're full of love and understanding, beautiful    inside. 

F#m...     E.                     Bsus.
     And I know how you hold your feelings. 
      F#m...
And I know you. 
  Bsus.         E.
I know we can believe. 

     C#m.  D.  Bm.         E7.
It's clear now we can get along. 
       C#m.           D.
You've felt like me before, ignored 
    Bm.           E7.
And every word is wrong. 
    A. A7.  Bm.                 E.
And I  know who I'm supposed to be. 
     A.              A7.     Bm.             E.
It's never been that easy to be someone like me. 
    A. A7.          Bm.               E.
And I  feel there's nothing we should hide 
      C#m.             D.             Bm.       E7
We're full of love and understanding, beautiful    inside. 

Outro: 
|--------------------------------------------------------0------|
|------2-0------2---0---2------------2-0------2---0------2------|
|----2------------2----------------2------------2--------2------|
|-------------0-----------------------------0------------2------|
|--0-----------------------------0-----------------------0------|
|---------------------------------------------------------------|
Related for Beautiful Inside tab
×
Best way to learn
"Beautiful Inside"