Guitaretab - guitar tabs
Song name
# A B C D E F G H I J K L M N O P Q R S T U V W X Y Z

Everclean - Beautiful Inside tab

-------------------------------------------------------------------------------
			     SONG NAME  Beautiful Inside
-------------------------------------------------------------------------------
Tabbed by: TheTabPirate 
Email:

Tuning:

Intro
e|-------------------------------|
B|---------0-------------0-------|
G|-----6-------------6--------6--|
D|-------7-------------7----77---|
A|-0-0-----------5-5-------------|
E|-------------------------------|
Repeat once
The coupled 7s are quiet. 77


In Sons of Provo he also does it this way when hes talking about his song.
[ Tab from: http://www.guitaretab.com/e/everclean/74247.html ]
Intro
e|-------------------------------------------------------------------------|
B|---------0-----------------0------------------0------------------0-------|
G|-----6--------6--------6--------6---------6--------6---------6--------6--|
D|-------7----77-----------7----77------------7----77------------7---------|
A|-0-0---------------5-5----------------0-0----------------5-5-------------|
E|-------------------------------------------------------------------------|


| /  slide up
| \  slide down
| h  hammer-on
| p  pull-off
| ~  vibrato
| +  harmonic
| x  Mute note
============================================================================