Song name
# A B C D E F G H I J K L M N O P Q R S T U V W X Y Z

Everclear - Summerland tab

----------------------------------------------------------------------------
			   SUMMERLAND - Everclear
----------------------------------------------------------------------------

Tabbed by: illy93
Tuning: Standard

INTRO / CHORUS (Both Guitars):
e|----------------------------------|
B|--1---1/44---6/8-8----8-8-\66\44--|
G|--2---2/55---6/9-9----9-9-\77\77--|
D|--3---3/66---6/1010---1010\88\66--|
A|--3---3/66---6/1010---1010\88\66--|
E|--1---1/44---4/8-8----8-8-\66\44--|

=VARIATION=
e|-----------------------------------------------------|
B|-----------------------------------------------------|
G|--2222-2222--5555-5555--9-9-9-9--9-9-9--77-555-5555--|
D|--3333-3333--6666-6666--10101010-101010-88-666-6666--|
A|--3333-3333--6666-6666--10101010-101010-88-666-6666--|
E|--1111-1111--4444-4444--8-8-8-8--8-8-8--66-444-4444--|
 this variation is played in sections both palm muted 
 and normally


VERSE (Both Guitars):
e|----------------------------------|
B|--10101010-88--66-44-33-11-11-44--|
G|--10101010-88--77-55-44-22-22-55--|
D|--10101010-88--88-66-55-33-33-66--|
A|--8-8-8-8--66--88-66-55-33-33-66--|
E|---------------66-44-33-11-11-44--|


BRIDGE:

=Guitar 1=
e|---------------|
B|--10101010-88--|
G|--10101010-88--|
D|--10101010-88--|
A|--8-8-8-8--66--|
E|---------------|

=Guitar 2=

e|---6-6-6-6-6-6---|
B|--8-8-8-8-8-8-8--|
G|-----------------|
D|-----------------|
A|-----------------|
E|-----------------|
 played repetitively


"SOLO":

Guitar 1 = 
e|--------------------------------------------|
B|--------------------------------------------|
G|--------------------------------------------|
D|--------------------------------------------|
A|--------------------------------------------|
E|--1111-1111-4444-4444-8888-888-66-444-4444--|
    PM______________________________________


Guitar 2 =
e|-----------------------------|
B|--6---6-4---4----------------|
G|--------------5---5-3---5-2--|
D|-----------------------------|
A|-----------------------------|
E|-----------------------------|
play using a whammy bar


OUTRO:
Guitar 1 = plays bridge chords

Guitar 2 =
e|----------------------------|
B|--8888-6666-----------------|
G|------------8888-5555-5333--|
D|----------------------------|
A|----------------------------|
E|----------------------------|


============================================================================

STRUCTURE:
INTRO RIFF                                      (x3)
VERSE RIFF                                      (x3)
CHORUS RIFF                                     (x2)
VERSE RIFF                                      (x2)
CHORUS RIFF                                     (x2)
VARIATION (not pm)                              (x2)
BRIDGE                                          (x4)
SOLO
Guitar 1 Solo Part                              (x1)                      
VARIATION (pm)                                  (x1)
VARIATION (not pm)                              (x1)
Gtr 1 plays Variation, Gtr 2 plays Bridge Fill  (x1)
BRIDGE                                          (x4)
OUTRO              


KEY
/ = slide up
\ = slide down

============================================================================
Tap to rate this tab
 
# A B C D E F G H I J K L M N O P Q R S T U V W X Y Z