Song name
# A B C D E F G H I J K L M N O P Q R S T U V W X Y Z

Everclear - The Boys Are Back In Town tab

Intro

e|-------------------------------------------------------------------------|
B|-------------------------------------------------------------------------|
G|-----------------------2-2--5-5------------------------------------------|
D|--5---0-2-2-0---0-2-0--2-2--5-5------------------------------------------|
A|--5-----------2--------0-0--3-3------------------------------------------|
E|--3----------------------------------------------------------------------|

Verse (palm muted)

e|-------------------------------------------------------------------------|
B|-------------------------------------------------------------------------|
G|-----4--5-----4-----5--7-------------------------------------------------|
D|--5--4--5--2--4--2--5--7-------------------------------------------------|
A|--5--2--3--2--2--2--3--5-------------------------------------------------|
E|--3--------0-----0-------------------------------------------------------|

Chorus

e|-------------------------------------------------------------------------|
B|-------------------------------------------------------------------------|
G|-------2--5--------------------------------------------------------------|
D|--5-5--2--5--------------------------------------------------------------|
A|--5-5--0--3--------------------------------------------------------------|
E|--3-3--------------------------------------------------------------------|


Intro x2
verse x2
chorus x2
verse x2
chorus x3

during bridge just repeat the chorus

verse x2
chorus x2 plus a  couple slower runs through chorus palm muted
Tap to rate this tab
 
# A B C D E F G H I J K L M N O P Q R S T U V W X Y Z