Song name
# A B C D E F G H I J K L M N O P Q R S T U V W X Y Z

Everclear - Song From An American Movie Part 2 tab

Help us improve GuitareTab! Take a short survey!
EVERCLEAR-SONG FOR AN AMERICAN MOVIE PART 2


standard tuning

heres the riff played throughout the whole thing with a load of pedals
to make it sound a bit like a synth


E------15---15-|
B---------12---|
G12------------|
D--------------|
A--------------|
E--------------|


then it goeslike this for the verses

E-------------|
B-------------|
G-------------|
D----55-99-55-|
A-55-33-77-33-|
E-33----------|


then then the bridge played for the "i wanna get lost in my life sometimes"
bit

E--------------|
B--------------|
G--------------|
D-55-xx-99--77-|
A-33-xx-77--55-|
E--------------|


then the "the only words that ever made sense to me" bit

E--------------------|
B--------------------|
G--------------------|
D-77xx55xx---------5-|
A-55xx33xx55----55-3-|
E---------33----33---|

thats it apart from the solo,which if anyone can work out please can they post
im dissappointed with the amount of new everclear stuff on here.hope you enjoy the tab
Alex McCall
masterofcats@hotmail.com
Related for Song From An American Movie Part 2 tab