Song name
# A B C D E F G H I J K L M N O P Q R S T U V W X Y Z

Everclear - Song From An American Movie Part 1 tab

Song From An American Movie pt.1: Song From An American Movie vol.1

Transcribed by Carrie Davies

Guitar 1 and 2 banjo/mandolin arranged for guitar.

 Gt.1
e ----15----------15----------15----------15-------|
b -------12-15-------12-15-------12-15-------12-15-|
g -12----------12----------12----------12----------|
d -------------------------------------------------|
|Gt.2                                             |
e -------------------------------------------------|
b -------------------------------------------------|
g -0-----------0------------0-----------0----------|
d -------------------------------------------------|

 Gt.1
e ----15----------15----------15----------15----------|
b -------12-15-------12-15-------12-15-------17p15-12-|
g -12----------12----------12----------12-------------|
d ----------------------------------------------------|
|Gt.2                                                |
e ----------------------------------------------------|
b ----------------------------------------------------|
g -0-----------0------------0-------------------------|
d ----------------------------------------------------|
|Gt.3 (12 string Acoustic)                           |
e ----------------------------------------------------|
b ----------------------------------------------------|
g -------0-----0-0-0h2-2p0--------0-----0-0-0h2-2p0---|
d -----0-----0------------------0-----0---------------|
a ---2-----2------------------2-----2-----------------|
E -3------------------------3-------------------------|

 Gt.1
e ----15----------15----------15----------15----------|
b -------12-15-------12-15-------12-15-------17p15-12-|
g -12----------12----------12----------12-------------|
d ----------------------------------------------------|
|Gt.2                                              |
e --------------------------------------------------|
b --------------------------------------------------|
g -0-----------0------------0-----------------------|
d --------------------------------------------------|
|Gt.3                                              |
e --------------------------------------------------|
b --------------------------------------------------|
g -------0-----0-0-0h2-2p0--------0-----0-0-0h2-2p0-|
d -----0-----0------------------0-----0-------------|
a ---2-----2------------------2-----2---------------|
E -3------------------------3-----------------------|

 Gt.1
e ----15----------15----------15----------15-----------|x3
b -------12-15-------12-15-------12-15-------17p15-12--|
g -12----------12----------12----------12--------------|
d -----------------------------------------------------|
|Gt.2                                                 |
e -----------------------------------------------------|
b -----------------------------------------------------|
g -0-----------0------------0--------------------------|
d -----------------------------------------------------|
|Gt.3                                                 |
e -----2-------------------------2---------------------|
b -----3-------3---------3-------3-------3---------3---|
g ---2---2-----0---------0-----2---2-----0---------0---|
d -0---------2---2-----0---0-0---------2---2-----0---0-|
a ---------3------------------------3------------------|
E -----------------0h3-----------------------0h3-------|
The only thing that ever made sense to me
is the words to a song from an American movie
The only thing that ever made sense in my life oohh

 Gt.1
e ----15----15----15----15----15----15----15----15-|
b -------12----12----12----------12----12----12----|
g -12----------------------12----------------------|
d -------------------------------------------------|
|Gt.3                                             |
e ---------------------------3---0-----------------|
b ---------3-------------------3---3---------------|
g -----4-----4---4-------0-------------------------|
d ---4---4-----4-------2---2-----------------------|
a -2---------------0h3-----------------------------|
E -------------------------------------------------|
is the sound of my little girl laughing through the window of a summer night

 Gt.1
e ----12-------------12-------------12-------------15------------|
b -------17p15-12-------17p15-12-------17p15-12-------17p15-12---|
g -15-------------15-------------15-------------12---------------|
d ---------------------------------------------------------------|
|Gt.3                                                           |
e ---------------------------------------------------------------|
b -------3--------------3--------------3---------------3---------|
g -------0--------------0--------------0---------------0---------|
d -----0---0----------0---0----------0---0-----------0---0-------|
a ---------------------------------------------------------------|
E -0h3------------0h3------------0h3-------------0h3-------------|
I sit alone in the backyard wishing I could be inside

 Gt.1
e ----15----15----15----15----15----15-------------|
b -------12----12----12----------12----12-x--------|
g -12----------------------12----------------------|
d -------------------------------------------------|
|Gt.3                                             |
e ---------------------------3---0---x-------------|
b ---------3-------------------3---3-x-------------|
g -----4-----4---4-------0-------------------------|
d ---4---4-----4-------2---2-----------------------|
a -2---------------0h3-----------------------------|
E -------------------------------------------------|
Just the sound of my little girl laughing makes me happy just to be alive

 Gt.1
e ----15----------15----------15----------15----------|x3
b -------12-15-------12-15-------12-15-------17p15-12-|
g -12----------12----------12----------12-------------|
d ----------------------------------------------------|
|Gt.2                                                |
e ----------------------------------------------------|
b ----------------------------------------------------|
g -0-----------0------------0-------------------------|
d ----------------------------------------------------|
|Gt.3                                                |
e ----------------------------------------------------|
b ----------------------------------------------------|
g -------0-----0-0-0h2-2p0--------0-----0-0-0h2-2p0---|
d -----0-----0------------------0-----0---------------|
a ---2-----2------------------2-----2-----------------|
E -3------------------------3-------------------------|
Makes me happy just to be alive
Makes me happy just to be alive
Makes me happy just to be alive

 Gt.1
e ----15----------15-------------------------|
b -------12-15-------17p15-12----------------|
g -12----------12-------------12-------------|
d -------------------------------------------|
|Gt.3                                       |
e -------------------------------------------|
b -------------------------------------------|
g -------0-----0-0-0h2-2p0-x-----------------|
d -----0-----0-------------------------------|
a ---2-----2---------------------------------|
E -3-----------------------------------------|
Tap to rate this tab
# A B C D E F G H I J K L M N O P Q R S T U V W X Y Z