Song name
# A B C D E F G H I J K L M N O P Q R S T U V W X Y Z

Everclear - Santa Monica Acoustic tab

#-----------------------------------------------------------------------------#
#-- File created with Instab - http://www.pconline.com/~smcarey/instab.html --#
#-----------------------------------------------------------------------------#

Author/Artist: Everclear
Title: Santa Monica Acoustic

A Arpeggio

Tuning: D Tuning (Whole Step Down)

-------|--------|---------------------------|--|-------------3------|---------|
-------|--------|---------------------------|--|-------------0------|---------|
-------|--------|-------------------x-x-x-x-|--|-------------x------|---------|
-------|--------|-------------------x-x-x-x-|2x|-------------5------|---------|
-------|-5--5---|-5--5--5--5--5--5----------|--|-5--5--5--5---------|---------|
-------|-3--3---|-3--3--0--0--3--3----------|--|-3--3--0--0---------|---------|
                                                             A

-------|----------------------------------------------------------------------|
-------|----------------------------------------------------------------------|
-------|---------------------------x-x-x-x------------------------------------|
-------|---------------------------x-x-x-x------------------------------------|
-------|-5--5----5--5--5--5--5--5----------5--5--5--5--5--5----5--5--5--5--5--|
-------|-3--3----3--3--0--0--3--3----------3--3--0--0--3--3----3--3--0--0--3--|
  Verse 1

------------------------------------------------------------------------------|
------------------------------------------------------------------------------|
----x-x-x-x-------------------x-x-x-x-------------------x-x-x-x---------------|
----x-x-x-x-------------7--7--x-x-x-x-7--7--4--4--5--5--x-x-x-x--5--5---------|
-5----------5--5--5--5--5--5----------5--5--2--2--3--3-----------3--3--7--7---|
-3----------3--3--0--0-------------------------------------------------5--5---|


------------------------------------------------------------------------------|
------------------------------------------------------------------------------|
-------x-x-x-x---------------------------------------x-x-x-x------------------|
-------x-x-x-x---------------------------------7--7--x-x-x-x-7--7/-4--4--5--5-|
-5--5----------5--5--5--5--5--5----5--5--5--5--5--5----------5--5/-2--2--3--3-|
-3--3----------3--3--0--0--3--3----3--3--0--0---------------------------------|


-----------------------------------------------3-|----------------------------|
-----------------------------------------------0-|----------------------------|
-x-x-x-x-------------------x-x-x-x-------------x-|----------------------------|
-x-x-x-x-5--5--------------x-x-x-x-------------5-|----------------------------|
---------3--3--7--7--5--5----------5--5--5--5----|----------------------------|
---------------5--5--3--3----------3--3--0--0----|----------------------------|


--------|---------------------------------------------------------------------|
--------|---------------------------------------------------------------------|
--------|----5--x-x-x-x----5-----7--------x-x-x-x----------9-----7--x-x-x-x---|
--------|-5--5--x-x-x-x-5--5--7--7--5--5--x-x-x-x-5--5--9--9--7--7--x-x-x-x-7-|
--------|-3-------------3-----5-----5--5----------5--5--7-----5-------------5-|
--------|---------------------------------------------------------------------|
  Chorus

------------------------------------------------------------------------------|
------------------------------------------------------------------------------|
---7-----5--------x-x-x-x----------7-----5--x-x-x-x----5-----7--------x-x-x-x-|
---7--5--5--5--5--x-x-x-x-5--5--7--7--5--5--x-x-x-x-5--5--7--7--5--5--x-x-x-x-|
------3-----5--5----------5--5--5-----3-------------3-----5-----5--5----------|
------------------------------------------------------------------------------|


---------------------------------------|--------------------------------------|
---------------------------------------|--------------------------------------|
----------9-----7--x-x-x-x----7-----5--|--------------------------------------|
-5--5--9--9--7--7--x-x-x-x-7--7--5--5--|--------------------------------------|
-5--5--7-----5-------------5-----3-----|--------------------------------------|
---------------------------------------|--------------------------------------|


---------|--------------------------|--|-3------------|-----------------------|
---------|--------------------------|--|-0------------|-----------------------|
---------|-------x-x--x-------------|--|-x------------|-----------------------|
---------|-------x-x--x-------------|3x|-5------------|-----------------------|
---------|-5--5---------5--5--5--5--|--|----------7\--|-----------------------|
---------|-3--3---------3--3--0--0--|--|--------------|-----------------------|
  Riff 1>                           <

---------|--------------------------------------------------------------------|
---------|--------------------------------------------------------------------|
---------|-------x-x--x---------------------------------------x-x--x----------|
---------|-------x-x--x---------------------------------------x-x--x----------|
---------|-5--5---------5--5--5--5--5--5----5--5--5--5--5--5---------5--5--5--|
---------|-3--3---------3--3--0--0--3--3----3--3--0--0--3--3---------3--3--0--|
  Verse 2> 2x different ending each time

-----------------------------------------------------------------------------|
-----------------------------------------------------------------------------|
---------------------------7--x-x-x-x-7--------4-----5--x-x-x-x----5---------|
------------------------7--7--x-x-x-x-7-----4--4--5--5--x-x-x-x-5--5---------|
-5--5--5----5--5--5--5--5-------------------2-----3-------------3-----7--7---|
-0--3--3----3--3--0--0-------------------5/7--------------------------5--5\--|


---------|-------------------------------|------------------------------------|
---------|-------------------------------|------------------------------------|
---------|-------------------------------|------------------------------------|
---------|-------------------------------|------------------------------------|
---------|-5--5----5--5--5--5--5----7\---|------------------------------------|
---------|-3--3----3--3--0--0--3---------|------------------------------------|
  1st ending

---------|--------------------------------------------------------------------|
---------|--------------------------------------------------------------------|
---------|--------------------------------------------7--x-x-x-x----7-----4---|
---------|-----------------------------------------7--7--x-x-x-x-7--7--4--4---|
---------|-5--5----5--5--5--5--5--5----5--5--5--5--5-------------5-----2------|
---------|-3--3----3--3--0--0--3--3----3--3--0--0-----------------------------|
  2nd ending

--------------------------------------------------------------|---------------|
--------------------------------------------------------------|---------------|
----5--x-x-x-x------------------------------------------------|---------------|
-5--5--x-x-x-x-5----------------------------------------------|---------------|
-3-------------3-----7--7--5--5----5--5--5--5--5--------------|---------------|
------------------3/-5--5\-3--3----3--3--0--0--3-----x\-------|---------------|
                                                   pick slide

----------|-----------|------------|-----------|------------------------|-----|
----------|-----------|------------|-----------|------------------------|-----|
----------|-----------|------------|-----------|------------------------|-----|
----------|-----------|------------|-----------|------------------------|-----|
----------|-----------|-5--5-------|-----------|------------------------|-----|
----------|-----------|-3--3-------|-----------|------------------------|-----|
            Chorus 1x                Chorus 1x    Outro Riff 1 then end
Tap to rate this tab
# A B C D E F G H I J K L M N O P Q R S T U V W X Y Z