Song name
# A B C D E F G H I J K L M N O P Q R S T U V W X Y Z

Everclear - New Blue Champion tab

OKay, so I had noticed there are only about 3 tabs on this song that aren't even 
correct so I thought I'd show you my version. Standard tuning; no capo.

E:|--------------------------------10---------|
B:|--------------------7----------------------| Basically played throughout
G:|-----2---------------7--------5------------|  the whole song
D:|---2---2---------7----------5--------------|   
A:|--0-----------3/5----------3---------------|
E:|-------------------------------------------|




Now it's like 00:12 and it does a really quiet chord progression with Am, Cmaj, 
Dmaj and back to Cmaj. 



00:33 instead of repeating at E:|--------|   play E:|-----8---8----------10-------10--|
                              B:|--------|        B:|-------8---------------10--------|
                              G:|---2----|        G:|--------------------------12-----|
                              D:|--2-2---|        D:|---10---------10/12--------------|
                              A:|-0------|        A:|---------------------------------|
                              E:|--------|        E:|---------------------------------|


    00:38 "I just want it all, to go away"
E:|---x-x-x--x-x--x-x-------x-x-x--x-x--x-x-------x-x-x--x-x--x-x-------x-x-x--x-x--x----|
B:|---x-x-x--x-x--x-x-------x-x-x--x-x--x-x-------5-5-5--3/5--5-5-------7-7-7--7/7--7~~~-|
G:|---7-7-7--5/7--7-7-------5-5-5--3/5--5-5-------5-5-5--3/5--5-5-------7-7-7--5/7--7~~~-|
D:|---7-7-7--5/7--7-7-------5-5-5--3/5--5-5-------5-5-5--3/5--5-5-------7-7-7--5/7--7~~~-|
A:|---7-7-7--5/7--7-7-------5-5-5--3/5--5-5-------3-3-3--1/3--3-3-------5-5-5--3/5--5~~~-|
E:|---5-5-5--3/7--5-7-------3-3-3--1/3--3-3-------x-x-x--x-x--x-x-------x-x-x--x-x--x----|
Let last note ring


Then at 00:51 it kind of slides in or slowly raises the volume into

E:|---x--x----x-x-x-x-x-x----x-x----x--x----x-x-x-x----x-x----|  
B:|---5--5----x-x-x-x-5-5----x-x----x--x----x-x-x-x----x-x----|
G:|---6--6----x-x-x-x-4-4----x-x----7--7----x-x-x-x----4-4----|  <---- Play this 4x 
D:|---7--7----x-x-x-x-5-5----x-x----7--7----x-x-x-x----5-5----|
A:|---7--7----x-x-x-x-5-5----x-x----5--5----x-x-x-x----5-5----|
E:|---5--5----x-x-x-x-3-3----x-x----x--x----x-x-x-x----3-3----|

 and then at the end of the fourth time play a Cmaj preferably 
E:|--x--------------------|
B:|--x------12b13~~~ 12\10|
G:|--9--------------------|
D:|--10-------------------|
A:|--10-------------------|
E:|--8--------------------|


Outro

E:|------------------------------------------------------------------------------------------|
B:|--------------------0-----------------------0--------------------0-----------2---------1--|
G:|-------------------------------------------------------------------------------0----------|
D:|-----------------0------------------------0-------------------0-----------4----------2----|
A:|--0-0-0-0----0h2-----------5-5-5-5---0h2---------0-0-0-0---0h2----------5-----------3-----|
E:|-----------3-----------------------3---------------------3--------------------------------|
Tap to rate this tab
# A B C D E F G H I J K L M N O P Q R S T U V W X Y Z