Song name
# A B C D E F G H I J K L M N O P Q R S T U V W X Y Z

Everclear - Her Brand New Skin tab

Her Brand New Skin
By Everclear
Off the CD "Sparkle and Fade"
Tabbed by Chris Mickols (cmickols@hotmail.com)


Intro:
e|--------------------------|
B|--------------------------|
G|-4-4-4-4-4-4-4-4-2--------|
D|-5-5-5-5-5-5-5-5-3--------|
A|-5-5-5-5-5-5-5-5-3--------|
E|-3-3-3-3-3-3-3-3-1--------|
 

Verse:
A guitar strums an F chord every once in a while

e|----------------------------------|
B|----------------------------------|
G|----------------------------------|
D|---------5-5-5-5---------5-5-5-5--|
A|-3-3-3-3-3-3-3-3-5-5-5-5-3-3-3-3--|
E|-1-1-1-1---------3-3-3-3----------|
 Chorus:
e|-------------------------------------|
B|-------------------------------------|
G|-7-7-7-7---------------------9-10-9--|
D|-7-7-7-7-8-8-8-8--10----10---9-10-9--|
A|-5-5-5-5-8-8-8-8--10----10---7-8--7--|
E|---------6-6-6-6--8-----8------------|
 
End on an F

Outro:
e|------------------------|
B|------------------------|
G|-------------------5-5--|
D|-3-3-3-3-2-3--3-3--5-5--|
A|-3-3-3-3-2-3--3-3--3-3--|
E|-1-1-1-1-0-1--1-1-------|
 
that should be all of it, e-mail any sugesstions or changes to:
cmickols@hotmail.com

Check out my other tabs at:
http://members.aol.com/cmickols
Tap to rate this tab
 
# A B C D E F G H I J K L M N O P Q R S T U V W X Y Z