Song name
# A B C D E F G H I J K L M N O P Q R S T U V W X Y Z

Everclear - Everything To Everyone tab

e--24---20---24---20----20--24--20--24--20--24---20--24-20
B--20---17---20---17----17--20--17--20--17--20---17--20-17
G---------------------------------------------------------
D---------------------------------------------------------
A---------------------------------------------------------
E---------------------------------------------------------

e--20---24---20-------------------------------------------
B--17---20---17-------------------------------------------


   AND THATS IT ITS PRETTY SIMPLE AND IM PRETTY SURE ITS RIGHT BECAUSE I GOT IT OUT OF A TAB BOOK.

IF YOU FIND ANYTHING WRONG E-MAIL ME OR PUT DOWN A COMMENT
MY E-MAIL IS sublink185@hotmail.com
Tap to rate this tab
# A B C D E F G H I J K L M N O P Q R S T U V W X Y Z