Song name
# A B C D E F G H I J K L M N O P Q R S T U V W X Y Z

Everclear - Nervous & Weird tab

-#
#
From: Jibra@aol.com
Date: Sat, 20 Jan 1996 16:15:01 -0500
                                           Nervous and Weird
                                              By Everclear
Tabbed by Matt Cook



      G#         E          C                      
||-----4----|-----0----|-----3----|
||-----4----|-----0----|-----5----|
||-----5----|-----1----|-----5----|
||-----6----|-----2----|-----5----|
||-----6----|-----2----|-----3----|
||-----4----|-----0----|-----3----|


      G          B          A  
||-----3----|----2----|-----0----||
||-----3----|----4----|-----2----||
||-----4----|----4----|-----2----||
||-----5----|----4----|-----2----||
||-----5----|----2----|-----0----||
||-----3----|----2----|-----0----||



                                                                             




G# E	      C	         G          B
  You know I want to be the way you want me to

E      C          G			A
  Big hearted and tall enough to cover you

E	   C             G	     B
  I would break in half if you said it out

E		 C         G		     A
Loud splinter out of myself just like mercury

E		  C	      G    	     B
  I think it's better now than how it used to be

E	     C        G		   A
  You were lying in bed and I would levitate

E              C		 G		 B
  I think it's better here than where we used to be

E	    G		C	       A
  I wish I could go out into the Oregon sun

 Chorus: 
         E           G#
			
	To be alive in the day		   
	
	E	      G#
	I'd smile at everyone   		



I remeber you back in '83 
You were dressing insane you were my everything
You were so different from all those other girls
A bling electra in drag so cool and casually lame
I think I'm better now than how I used to be
Always nervous and weird scared most of the time
I think it's better now than how it used to be
always up in the night afraid to live in the day

Chorus:

Afraid to live in the day yeah
Afraid of being afraid

Solo:


    15x                              2x
                                        
||---11--||--0--7--0--4--0--5--0--6---0--|------------------------------------
--|
||---12--||-------------------------------------|--12--0--9--0--10--0--11--0--
|
||---12--||-------------------------------------|-----------------------------
--------|
||--------||-------------------------------------|----------------------------
----------|
||--------||-------------------------------------|----------------------------
----------|
||--------||-------------------------------------|----------------------------
----------|



                                                                             

    1/2  and hold    release    1/2    1/2 and hold
                              
----------------------------------|-----------------------------||
----------------------------------|-----------------------------||
11-~~~--11--11---11--9--|--7-~~~--7-~~~--------||
----------------------------------|-----------------------------||
----------------------------------|-----------------------------||
----------------------------------|-----------------------------||


Now I sit alone when you're not around
I relize its just another friendly noise
See your scary dolls down-looking me
From the corner of my eye I see the shaking hair
You know I want to be the way you want me to  
Big hearted and tall enough to cover you
You know I want to be the way you want me to
I wish I could go out to be allowed in the day

Chorus:

To be allowed in the day
Just be allowed in the day
To be allowed in the day

Questions and comments welcome 
Tap to rate this tab
 
# A B C D E F G H I J K L M N O P Q R S T U V W X Y Z