Song name
# A B C D E F G H I J K L M N O P Q R S T U V W X Y Z

Everfound - What Love Means chords

Highlighted       Show chord diagrams
riff 1:
E| ----------------------11-11---------|
B| 8-8-9-9-11-11-8-8-9-9-------9-9-8-8-|
G| ------------------------------------|
D| ------------------------------------|
A| ------------------------------------|
E| ------------------------------------|

riff 2:
E| -------------------------------------------------------------------------|
B| 8-8-8-8-8--8-8--8-8--8-8-8-8-8--8--8--8--8---8--8---8--8---8--8--8--8----|
G| 8-8-8-8-8--8-8--8-8--8-8-8-8-8--8--8--8--8---8--8---8--8---8--8--8--8----|
D| 8-8-8-8-8--8-8--8-8--8-8-8-8-10-10-10-10-10--10-10--10-10--10-10-10-10---|
A| 6-6-6-6-6--6-6--6-6--6-6-6-6---------------------------------------------|
E| -------------------------------------------------------------------------|

E| -------------------------------------------------------------------------|
B| 8-8-8-8-8--8-8--8-8--8-8-8-8-9-9-9-9-9-9-9-9-----------------------------|
G| 8-8-8-8-8--8-8--8-8--8-8-8-8-8-8-8-8-8-8-8-8-----------------------------|
D| 6-6-6-6-6--6-6--6-6--6-6-6-6-6-6-6-6-6-6-6-6-----------------------------|
A| -------------------------------------------------------------------------|
E| -------------------------------------------------------------------------|

When the E-Guitar plays, the chords are played like that:
Ab: 4 6 6 x x x
Bb: 6 8 8 x x x
Eb: x 6 8 8 x x
Cm: 8 10 10 x x

Intro:
7x riff 1
After the third time riff the 2.guitar plays the chords
Eb-Cm-Ab-Ab
Every Chords played to one time riff 1


Verse 1:
           Eb               Cm
There's no Life, There's no death.
         Ab
There no height, that can stand in Your way
         Eb              Cm
Not even doubt, or my mistakes.
              Ab
You broke the walls, and tore apart the veil.


[Chorus]:
                         Eb
And what can separate us now
                   Bb                      Cm
You gave away Your life, The greatest sacrifice,
                  Ab                       Eb
You did it all so I can know what love means.
                        Bb                           Cm
There's nothing good in me, but you see what I can't see.
                                                     riff 1
                        Ab                           Eb
And through it all Your cross shows me what love means.

riff 1            riff 1 2x
Cm                Ab
   What love means


Verse 2:
          Eb               Cm
Afraid no more, Oppress no more.
       Ab
By His wounds, I am in chains no more.
                 riff 2
My strength My freedom, My lasting hope.

I lift my eyes, 'Cause Love has one the war.

[Chorus]:
                         Eb
And what can separate us now
                   Bb                 Cm
You gave away Your life, The greatest sacrifice,
                  Ab                       Eb
You did it all so I can know what love means.
                        Bb                           Cm
There's nothing good in me, but you see what I can't see.

                        Ab                           Eb
And through it all Your cross shows me what love means.


Bridge:
                  Bb                        Cm
Love comes with a price, You paid with your life.
                 Ab                  Eb
So I'll give you mine, I'll give you mine.
                  Bb                        Cm
Love comes with a price, you paid with your life.
                 Ab                  Eb
So I'll give you mine, I'll give you mine.


[Chorus]:
                   Bb                 Cm
You gave away Your life, The greatest sacrifice.
                                            riff 1
                  Ab                        Eb
You did it all so I can know what love means.
                        riff 1                        riff 1
                        Bb                            Cm
There's nothing good in me, but you see what I can't see.
                        riff 1                         riff 1
                        Ab                             Eb
And through it all Your cross shows me what love means.
                  riff 1                    riff 1
                  Bb                        Cm
Love comes with a price, You paid with your life.
                 riff 1
                 Ab                   Eb
So I'll give you mine, What love means
                        Bb                           Cm
There's nothing good in me, but you see what I can't see.
                        Ab                           Eb
And through it all Your cross shows me what love means.
Tap to rate this tab
# A B C D E F G H I J K L M N O P Q R S T U V W X Y Z