Song name
# A B C D E F G H I J K L M N O P Q R S T U V W X Y Z

Evergreen Terrace - Untitled tab

-----------------------------------------------------------------
Untitled - Evergreen Terrace
-----------------------------------------------------------------
Tabbed by: akbal260
Email: aguilar_abraham260@hotmail.com

its not perfect but it was the best i could do .. plus, its the
only one there is .. its a very easy song .. hope u like it



Tuning: drop D

intro/chorus:
e|-------------------------------------------|---------|---------|
B|-------------------------------------------|---------|---------|
G|----9-9-9-9--4-4-4-4--6-6-6-6--2-2-2-2-----|--0-2-0--|---------|
D|----7-7-7-7--2-2-2-2--4-4-4-4--0-0-0-0-----|--0-2-0--|---------|
A|----7-7-7-7--2-2-2-2--4-4-4-4--0-0-0-0-----|--0-2-0--|---------|
D|----7-7-7-7--2-2-2-2--4-4-4-4--0-0-0-0-----|--0-2-0--|---------|
			                   /             \
                                      play this only on the intro

this part is played through the whole song
e|---------------------------------------------------------------|
B|---------------------------------------------------------------|
G|---------------------------------------------------------------|
D|---------------------------------------------------------------|
A|----------7------------------7-7/9-9-9\7-7-7-7\5---------------|
D|-----7h9-----11p9-------7h9------------------------------------|

verse:
e|---------------------------------------------------------------|
B|---------------------------------------------------------------|
G|----6-6-6-6--2-2-2-2-------------------------------------------|
D|----4-4-4-4--0-0-0-0-------------------------------------------|
A|----4-4-4-4--0-0-0-0-------------------------------------------|
D|----4-4-4-4--0-0-0-0-------------------------------------------|

the bridge is the same as the verse but with different strumming
Tap to rate this tab
# A B C D E F G H I J K L M N O P Q R S T U V W X Y Z