Song name
# A B C D E F G H I J K L M N O P Q R S T U V W X Y Z

Evergreen Terrace - Plowed tab

      h - hammer on 
      p - pull off 
      b - bend string up
      r - release bend
      / - slide up
      \ - slide down
      v - vibrato (sometimes written as ~)
      t - right hand tap
      .  palm muted
      ~ - 
Drop D

Intro:
Guitar 1
|--------------------------------------------------------------|
|--------------------------------------------------------------|
|--5/7--7--7-7/5-5--5-5/7--7--7-7/5--5--5-5/7--7--7-7/9--|
|--x-x--x--x--x-x--x--x--x-x--x--x--x-x--x--x--x-x--x--x--x-x--|
|--3/5--5-5--5/3--3--3-3/5--5--5-5/3--3--3-3/5--5--5-5/7--|
|-------------------------------------------------------------|

|----------------------------|
|----------------------------|
|--9--9-9/10-10-10--10/9/5--|
|--x--x--x-x--x--x----x-x-x--| x4
|--7--7-7/8--8--8---8/7/3--|
|---------------------------|

Guitar 2  begins after 2nd Intro
|-----------|
|-----------|
|-----------|
|--0-0-0-0--| 
                        
                    
Tap to rate this tab
# A B C D E F G H I J K L M N O P Q R S T U V W X Y Z