Guitaretab - guitar tabs
Song name
# A B C D E F G H I J K L M N O P Q R S T U V W X Y Z

Evergreen Terrace - Plowed tab

      h - hammer on 
      p - pull off 
      b - bend string up
      r - release bend
      / - slide up
      \ - slide down
      v - vibrato (sometimes written as ~)
      t - right hand tap
      .  palm muted
      ~ - 
Drop D

Intro:
Guitar 1
|--------------------------------------------------------------|
|--------------------------------------------------------------|
|--5/7--7--7-7/5-5--5-5/7--7--7-7/5--5--5-5/7--7--7-7/9--|
|--x-x--x--x--x-x--x--x--x-x--x--x--x-x--x--x--x-x--x--x--x-x--|
|--3/5--5-5--5/3--3--3-3/5--5--5-5/3--3--3-3/5--5--5-5/7--|
|-------------------------------------------------------------|

|----------------------------|
|----------------------------|
|--9--9-9/10-10-10--10/9/5--|
|--x--x--x-x--x--x----x-x-x--| x4
|--7--7-7/8--8--8---8/7/3--|
|---------------------------|

Guitar 2  begins after 2nd Intro
|-----------|
|-----------|
|-----------|
|--0-0-0-0--| [ Tab from: http://www.guitaretab.com/e/evergreen-terrace/157926.html ]
Pre Chorus:
Guitar 1
|--------------------------------------------------------------------|
|--------6-6-6-5-5-5-------6-6-5-5--------6-6-6-5-5-5-------6-6-3-3--|
|--5-5-5------------5-5-5----------3-3-3-------------3-3-3----------|
|--------------------------------------------------------------------|
|--------------------------------------------------------------------|
|-------------------------------------------------------------------| 
                                 x4
then
|----------------|
|----------------|
|---5---7---10---|
|---x---x---x----|
|---3---5---8----|
|---------------|

Guitar 2
|---------------------|
|---------------------|
|--------------------|
|--10--------8--------|
|--10-(x16)--8-(x16)--|
|--10-------8--------|
         x3

Chorus:
Guitar 1
|----------------------------------------------------------------|
|----------------------------------------------------------------|
|---------------------------------------------------------------|
|--0--------8--------0--------8--------0--------8----------------|
|--0-(x16)--8-(x16)--0-(x16)--8-(x16)--0-(x16)--8-(x16)----------|
|--0-------8--------0--------8--------0--------8----------------| 

|----------------------------------------|
|----------------------------------------|
|---------------------------------------|
|---7---7-7-7-7------8---8-8-8-8---10~---|
|---8---8-8-8-8------8---8-8-8-8---8~----|
|---7---7-7-7-7------8---8-8-8-8---8~----| 
        . . . .          . . . .
(not exact strum pattern)

Altered Intro:
|-------------------------------------------------|
|-------------------------------------------------|
|--9/10-10-10-10/9--99---9/10-10-10-10/9--9-9--|
|--x-x--x--x----x-x--x-x---x-x--x--x----x-x--x-x--|
|--7/8--8--8---8/7--7-7---7/8--8--8----8/7--7-7--|
|------------------------------------------------|

|-------------------------------------------------------|
|-------------------------------------------------------|
|---9/10--10-10-10/12--12--12-12/14--14--14---14/12/9--|
|---x-x---x--x-x--x---x---x---x--x---x---x----x-x--x--|x2
|---7/8---8--8---8/10--10--10-10/12--12--12---12/10/7--|
|------------------------------------------------------|

Intro       x1
Verse       x1
Pre Chorus  x1
Chorus      x1
Intro       x1/2 (play through twice)
Alt. Intro  x1
Verse       x1
Pre Chorus  x1
Chorus      x1
Pre Chorus  x1/2
Related for Plowed tab