Song name
# A B C D E F G H I J K L M N O P Q R S T U V W X Y Z

Evergreen Terrace - The Damned tab

     Only tabd what i know thats why its an intro so ill put up the rest when i 
figure it out but for now enjoy
   Guitar 1(0:00-0:??)
 D|--------------------|
 A|--------------------|
 F|--------------------|
 C|--------------------|
 G|--------------------|
 C|--------------------|

   Guitar 2(0:05-0:40)
 D|---------------------|
 A|-16--16--16-~--------|
 F|-15--13--12-~--------|
 C|-X---X---X--~--------|
 G|-13--11--10-~--------|
 C|---------------------|
           (0:42-1:03)                             (0:53-1:00)
 D|-----------------------------------------------|---------|
 A|-----------------------------------------------|191919---|
 F|------------------------8-10-11-13-13-15-16-18-|181818---|
 C|-------1-1-1-----1-1-1--x-x--x--x--x--x--x--x--|---------|
 G|-//-2--1-1-1--2--1-1-1--6-8--9--11-11-13-14-16-|---------|
 C|-//-2--1-1-1--2--1-1-1-------------------------|---------|
           (1:03-1:21)
 D|-13--13--13--13-----------|
 A|-17--17--17--17-----------|
 F|--------------------------|
 C|--------------------------|
 G|---00--00--00--00---------|
 C|---00--00--00--00---------|
Tap to rate this tab
# A B C D E F G H I J K L M N O P Q R S T U V W X Y Z