Guitaretab - guitar tabs
Song name
# A B C D E F G H I J K L M N O P Q R S T U V W X Y Z

Evergreen Terrace - Zero tab

-----------------------------------------------------------------------
			     Zero  Evergreen Terrace
-----------------------------------------------------------------------
Tabbed by: Cody Lampley
Email: codylampley@hotmail.com

Tuning: Drop D

This is pretty much just the basic rhythm of the song, it just keeps repeating itself.

The . stands for palm muting. The breakdown is self explanatory just palm mute the top 
strings

                            .= PM

e|---------------------------------------------------------------------|
B|---------------------------------------------------------------------|
G|---------------------------------------------------------------------|
D|---------------------------------------------------------------------|
A|---------------------------------------------------------------------|
E|--8-77--0-0-0-0---88-77--0-0-0-0------------------------------------|
[ Tab from: http://www.guitaretab.com/e/evergreen-terrace/192188.html ]
e|---------------------------------------------------------------------|
B|---------------------------------------------------------------------|
G|---------------------------------------------------------------------|
D|--8-77--0-0-0-0---88-77--0-0-0-0-------------------------------------|
A|--8-77--0-0-0-0---88-77--0-0-0-0-------------------------------------|
E|--8-77--0-0-0-0---88-77--0-0-0-0---x2--------------------------------|

e|---------------------------------------------------------------------|
B|---------------------------------------------------------------------|
G|---------------------------------------------------------------------|
D|--8-77--0-0-0-0---88-77--0-0-0-0-------------------------------------|
A|--8-77--0-0-0-0---88-77--0-0-0-0-------------------------------------|
E|--8-77--0-0-0-0---88-77--0-0-0-0---x4--------------------------------|
          . . . .          . . . .
e|---------------------------------------------------------------------|
B|---------------------------------------------------------------------|
G|---------------------------------------------------------------------|
D|--12-0-0-14-0-0-12-0-0-15-0-0-12-------------------------------------|
A|--12-0-0-14-0-0-12-0-0-15-0-0-12-------------------------------------|
E|--12-0-0-14-0-0-12-0-0-15-0-0-12-------------------------------------|
       . .    . .    . .    . .


| /  slide up
| \  slide down
| h  hammer-on
| p  pull-off
| ~  vibrato
| +  harmonic
| x  Mute note
=======================================================================
Related for Zero tab