Evergreen Terrace - Funeral Grade Flowers tab

|   Band: Evergreen Terrace      |
|   Song: Funeral Grade Flowers  |
|  Album: Buried Alive By Time   |
| Tuning: (D-A-D-G-B-E)          |
| Length: 2 min. 58 sec.         |
|    Transcribed By: Andrew K.   |
|     youtube.com/SaucyRebel     |

This tab is how I play the song, with "only 1 guitar." 
Evergreen Terrace plays the song with 2 guitars, but this tab
utilizes only 1, mostly the rythym guitar portion of the song.
It wouldnt be too difficult to figure out the lead, so if your 
up for it, use this tab as a guideline to figure it out. Song
Structure at the bottom of tab.

If your having trouble check youtube to see how I play it:
http://youtu.be/f0mkE87_Olc

Lyrics:
This has... come to end!
In moments these flowers, will bloom and rot!
In moments your beauty, laid to waste!
Your convictions felt!
Your convictions denied!
Your convictions felt!

Watch you Die!

Waiting, as I saw you,
fading, like everything in time,
you withered and you died.

Waiting, as I saw you,
fading, like everything in time,
you withered and you died.

Pull the pedals!
Rot!

Dead eyes! for false lies!
Dead eyes! for false lies!

Waiting, as I saw you,
fading, like everything in time,
you withered and you died.

Waiting, as I saw you,
fading, like everything in time,
you withered and you died.


TAB:
Legend
 h -- Hammer on
 p -- Pull off
 * -- palm mute
 ~ -- hold note and let ring

00:00
Intro part 1 (Clean)
e-----------------------------------------------------|
B-----------------------------------------------------|
G-----------------------------------------------------|
D-----------------------------------------------------|
A---5-5-5-7-7-7-8-8-8-7-7-7-5-5-5-7-7-7-8-8-8-7-7-0---|
D---0-0-0-0-0-0-0-0-0-0-0-0-0-0-0-0-0-0-0-0-0-0-0-0---|

e--------------------------------------------------------|
B--------------------------------------------------------|
G--------------------------------------------------------|
D---10-10101010-10-10-8-8-7-7-7h8-7---7-8-10-8-7-8-7-----|
A---8--8-8-8-8----------------------8----------------8---|
D---8--8-8-8-8-------------------------------------------|

00:08
Intro part 2 (Clean)
e-----------------------------------------------------|
B-----------------------------------------------------|
G---------------9-9-9-7-7-7-------------9-9-9-7-7-7---|
D---------------0-0-0-0-0-0-------------0-0-0-0-0-0---|
A---5-5-5-7-7-7-------------5-5-5-7-7-7---------------|
D---0-0-0-0-0-0-------------0-0-0-0-0-0---------------|

e--------------------------------------------------------|
B--------------------------------------------------------|
G--------------------------------------------------------|
D---10-10101010-10-10-8-8-7-7-7h8-7---7-8-10-8-7-8-7-----|
A---8--8-8-8-8----------------------8----------------8---|
D---8--8-8-8-8-------------------------------------------|

e-----------------------------------------------------|
B-----------------------------------------------------|
G---------------9-9-9-7-7-7-------------9-9-9-7-7-7---|
D---------------0-0-0-0-0-0-------------0-0-0-0-0-0---|
A---5-5-5-7-7-7-------------5-5-5-7-7-7---------------|
D---0-0-0-0-0-0-------------0-0-0-0-0-0---------------|

e--------------------------------------------------------|
B--------------------------------------------------------|
G--------------------------------------------------------|
D---10-10101010-10-10-8-8-7-7-7h8-7---7-8-10-8-7-8-7-----|
A---8--8-8-8-8----------------------8----------------8---|
D---8--8-8-8-8-------------------------------------------|

00:24
Intro part 3 (Clean)
e-----------------------------------------------------|
B-----------------------------------------------------|
G---------------9-9-9-7-7-7-------------9-9-9-7-7-7---|
D---------------0-0-0-0-0-0-------------0-0-0-0-0-0---|
A---5-5-5-7-7-7-------------5-5-5-7-7-7---------------|
D---0-0-0-0-0-0-------------0-0-0-0-0-0---------------|

e---------------------------------------------|
B---------------------------------------------|
G---------------------------------------------|
D---10-10101010-10-10-8-8-7-7-7h8-7---7-8-7---|
A---8--8-8-8-8----------------------8---------|
D---8--8-8-8-8--------------------------------|

00:32
Intro part 4 (Heavy Distortion)
e-----------------------------------------------------|
B-----------------------------------------------------|
G---------------9-9-9-7-7-7-------------9-9-9-7-7-7---|
D---------------0-0-0-0-0-0-------------0-0-0-0-0-0---|
A---5-5-5-7-7-7-------------5-5-5-7-7-7---------------|
D---0-0-0-0-0-0-------------0-0-0-0-0-0---------------|

e--------------------------------------------------------|
B--------------------------------------------------------|
G--------------------------------------------------------|
D---10-10101010-10-10-8-8-7-7-7h8-7---7-8-10-8-7-8-7-----|
A---8--8-8-8-8----------------------8----------------8---|
D---8--8-8-8-8-------------------------------------------|
       * * * *
e-----------------------------------------------------|
B-----------------------------------------------------|
G---------------9-9-9-7-7-7-------------9-9-9-7-7-7---|
D---------------0-0-0-0-0-0-------------0-0-0-0-0-0---|
A---5-5-5-7-7-7-------------5-5-5-7-7-7---------------|
D---0-0-0-0-0-0-------------0-0-0-0-0-0---------------|

e--------------------------------------------------------|
B--------------------------------------------------------|
G--------------------------------------------------------|
D---10-10101010-10-10-8-8-7-7-7h8-7---7-8-10-8-7-8-7-----|
A---8--8-8-8-8----------------------8----------------8---|
D---8--8-8-8-8-------------------------------------------|
       * * * *
00:48
Intro part 5/Bridge (Heavy Distortion)
e----------------------------------------------|
B----------------------------------------------|
G----------------------------------------------|
D----------------------------------------------|
A---5-5-5 5-5--7-7-7-7-7--8-8-8-8-8--7-7-7-0---|
D---0-0-0-0-0--0-0-0-0-0--0-0-0-0-0--0-0-0-0---|

e-----------------------------------------------|
B-----------------------------------------------|
G-----------------------------------------------|
D---1010108-8-8-8-8-8-8-7-7-7-7-7-7h8-7h8-7~~---|
A---8-8-8-8-8-8-8-8-8-8-8-8-8-8-8---------------|
D---8-8-8-8-8-8-8-8-8-8-8-8-8-8-8---------------|
          * *       * *       * *
e----------------------------------------------|
B----------------------------------------------|
G----------------------------------------------|
D----------------------------------------------|
A---5-5-5 5-5--7-7-7-7-7--8-8-8-8-8--7-7-7-0---|
D---0-0-0-0-0--0-0-0-0-0--0-0-0-0-0--0-0-0-0---|

e-------------------------------------------|
B-------------------------------------------|
G-------------------------------------------|
D---1010108-8-8-8-8-8-8-7-7-7-7-7-7-7-7-7---|
A---8-8-8-8-8-8-8-8-8-8-8-8-8-8-8-8-8-8-8---|
D---8-8-8-8-8-8-8-8-8-8-8-8-8-8-8-8-8-8-8---|
          * *       * *       * *
01:04
Verse/Breakdown (Heavy Distortion)
e--------------------------------------|
B----------------------------5-5-5-5---|
G----------------------------2-2-2-2---|
D---320--00-0--000--000--000-2-2-2-2---|
A---320--00-0--000--000--000-----------|
D---320--00-0--000--000--000-----------|
    ***  **    ***  ***  ***
e------------------------------------------|
B--------------------------------5-5-5-5---|
G--------------------------------2-2-2-2---|
D---320--00-0--000---000---000---2-2-2-2---|
A---320--00-0--000---000---000-------------|
D---320--00-0--000---000---000-------------|
    ***  **    ***   ***   ***
01:10
e--------------------------------------|
B----------------------------5-5-5-5---|
G----------------------------2-2-2-2---|
D---320--00-0--000--000--000-2-2-2-2---|
A---320--00-0--000--000--000-----------|
D---320--00-0--000--000--000-----------|
    ***  **    ***  ***  ***
e--------------------------------------|
B----------------------------5-5-5-5---|
G----------------------------2-2-2-2---|
D---320--00-0--000--000--000-2-2-2-2---|
A---320--00-0--000--000--000-----------|
D---320--00-0--000--000--000-----------|
    ***  **    ***  ***  ***
e--------------------------------------|
B----------------------------5-5-5-5---|
G----------------------------2-2-2-2---|
D---320--00-0--000--000--000-2-2-2-2---|
A---320--00-0--000--000--000-----------|
D---320--00-0--000--000--000-----------|
    ***  **    ***  ***  ***
e------------------------------------------|
B--------------------------------5-5-5-5---|
G--------------------------------2-2-2-2---|
D---320--00-0--000---000---000---2-2-2-2---|
A---320--00-0--000---000---000-------------|
D---320--00-0--000---000---000-------------|
    ***  **    ***   ***   ***
01:21
e--------------------------------------|
B----------------------------5-5-5-5---|
G----------------------------2-2-2-2---|
D---320--00-0--000--000--000-2-2-2-2---|
A---320--00-0--000--000--000-----------|
D---320--00-0--000--000--000-----------|
    ***  **    ***  ***  ***
e--------------------------------------|
B----------------------------5-5-5-5---|
G----------------------------2-2-2-2---|
D---320--00-0--000--000--000-2-2-2-2---|
A---320--00-0--000--000--000-----------|
D---320--00-0--000--000--000-----------|
    ***  **    ***  ***  ***
e--------------------------------------|
B----------------------------5-5-5-5---|
G----------------------------2-2-2-2---|
D---320--00-0--000--000--000-2-2-2-2---|
A---320--00-0--000--000--000-----------|
D---320--00-0--000--000--000-----------|
    ***  **    ***  ***  ***
e---------------------------------------|
B--------------------------------5~~~---|
G--------------------------------2~~~---|
D---320--00-0--000---000---000---2~~~---|
A---320--00-0--000---000---000----------|
D---320--00-0--000---000---000----------|
    ***  **    ***   ***   ***
01:33
Chorus (Heavy Distortion)
Listen to song for strumming pattern
e--------------------------------------------------|
B--------------------------------------------------|
G--------------------------------------------------|
D---0-0-0-0-0-0-0-0-0-0-0-1010101010101010101010---|
A---0-0-0-0-0-0-0-0-0-0-0-8-8-8-8-8-8-8-8-8-8-8----|
D---0-0-0-0-0-0-0-0-0-0-0-8-8-8-8-8-8-8-8-8-8-8----|

e-----------------------------------------------|
B-----------------------------------------------|
G-----------------------------------------------|
D---5-5-5-5-5-5-5-5-5-5-5-7-7-7-7-7-7-7-7-7-7---|
A---3-3-3-3-3-3-3-3-3-3-3-8-8-8-8-8-9-7-7-7-7---|
D---3-3-3-3-3-3-3-3-3-3-3-7-7-7-7-7-7-7-7-7-7---|

e--------------------------------------------------|
B--------------------------------------------------|
G--------------------------------------------------|
D---0-0-0-0-0-0-0-0-0-0-0-1010101010101010101010---|
A---0-0-0-0-0-0-0-0-0-0-0-8-8-8-8-8-8-8-8-8-8-8----|
D---0-0-0-0-0-0-0-0-0-0-0-8-8-8-8-8-8-8-8-8-8-8----|

e-----------------------------------------------|
B-----------------------------------------------|
G-----------------------------------------------|
D---5-5-5-5-5-5-5-5-5-5-5-7-7-7-7-7-7-7-7-7-7---|
A---3-3-3-3-3-3-3-3-3-3-3-8-8-8-8-8-9-7-7-7-7---|
D---3-3-3-3-3-3-3-3-3-3-3-7-7-7-7-7-7-7-7-7-7---|

01:53
Bridge part 1 (Heavy Distortion)
e-----------------|
B-----------------|
G-----------------|
D---88-88-8~--8---|
A---88-88-8~--8---|
D---88-88-8~--8---|

01:55
Bridge part 2 (clean/acoustic)
I might be wrong here, but its close
e--------------------|
B--------------------|
G-----0--0--0--0-----|
D------2--2--2--2----|
A---1---1--1--1--1---|
D--------------------|

01:58
Breakdown Part 1 (Heavy Distortion)
e----------------------------|
B----------------------------|
G----------------------------|
D---0-00-0-00-0-0000-0-0-0---|
A---0-00-0-00-0-0000-0-0-0---|
D---0-00-0-00-0-0000-0-0-0---|
      **   **   **** * * *
e----------------------------|
B----------------------------|
G----------------------------|
D---0-00-0-00-0-0000-0-0-0---|
A---0-00-0-00-0-0000-0-0-0---|
D---0-00-0-00-0-0000-0-0-0---|
      **   **   **** * * *
02:04 part 2
e--------------------------------|
B---3------3------3--------------|
G---2------2------2--------------|
D---0-0000-0-0000-0-0000-0-0-0---|
A---0-0000-0-0000-0-0000-0-0-0---|
D---0-0000-0-0000-0-0000-0-0-0---|
      ****   ****   **** * * *
e--------------------------------|
B---3------3------3--------------|
G---2------2------2--------------|
D---0-0000-0-0000-0-0000-0-0-0---|
A---0-0000-0-0000-0-0000-0-0-0---|
D---0-0000-0-0000-0-0000-0-0-0---|
      ****   ****   **** * * *
02:11 part 3
e--------------------------------------|
B----0-0-0-0-0-0-0-0-0-0-0-0-0-0-0-0---|
G---3-3-3-3-3-3-3-3-3-3-3-3-3-3-3-3----|
D--------------------------------------|
A--------------------------------------|
D--------------------------------------|

02:18 part 4
e-------------------------------------------------|
B-------------------------------------------------|
G-------------------------------------------------|
D-------------------------------------------------|
A-------------------------------------------------|
D---00-0-00000-0-0-000000-00-0-00000-0-0-000000---|
    ** * ***** * * ****** ** * ***** * * ******
e-------------------------------------------------------------|
B-------------------------------------------------------------|
G-------------------------------------------------------------|
D-------------------------------------------------------------|
A-------------------------------------------------------------|
D---00-0-00000-0-0-000000-00-0-00000-0-0-000000-0-00-0-0-00---|
    ** * ***** * * ****** ** * ***** * * ****** *
02:32 
Chorus 2: (Heavy Distortion)
Listen to song for strumming pattern & play section twice
e--------------------------------------------------|
B--------------------------------------------------|
G--------------------------------------------------|
D---0-0-0-0-0-0-0-0-0-0-0-1010101010101010101010---|
A---0-0-0-0-0-0-0-0-0-0-0-8-8-8-8-8-8-8-8-8-8-8----|
D---0-0-0-0-0-0-0-0-0-0-0-8-8-8-8-8-8-8-8-8-8-8----|

e-----------------------------------------------|
B-----------------------------------------------|
G-----------------------------------------------|
D---5-5-5-5-5-5-5-5-5-5-5-7-7-7-7-7-7-7-7-7-7---|
A---3-3-3-3-3-3-3-3-3-3-3-8-8-8-8-8-9-7-7-7-7---|
D---3-3-3-3-3-3-3-3-3-3-3-7-7-7-7-7-7-7-7-7-7---|

02:52
Outro (Heavy Distortion)
e-----------------|
B-----------------|
G-----------------|
D---88-88-8~--8---|
A---88-88-8~--8---|
D---88-88-8~--8---|

END!

Song Structure:
00:00 Intro part 1 (Clean)
00:08 Intro part 2 (Clean)
00:24 Intro part 3 (Clean)
00:32 Intro part 4 (Heavy Distortion)
00:48 Intro part 5/Bridge (Heavy Distortion)
01:04 Verse/Breakdown (Heavy Distortion)
01:33 Chorus (Heavy Distortion)
01:53 Bridge part 1 (Heavy Distortion)
01:55 Bridge part 2 (clean/acoustic)
01:58 Breakdown Part 1 (Heavy Distortion)
02:04 Breakdown Part 2
02:11 Breakdown Part 3
02:18 Breakdown Part 4
02:32 Chorus 2: (Heavy Distortion)
02:52 Outro (Heavy Distortion)

End!
Tap to rate this tab
 
# A B C D E F G H I J K L M N O P Q R S T U V W X Y Z