Song name
# A B C D E F G H I J K L M N O P Q R S T U V W X Y Z

Evergreen Terrace - New Friend Request tab

NEW FRIEND REQUEST
As recorded by Evergreen Terrace
(From the 2005 Album SINCERITY IS AN EASY DISGUISE IN THIS BUSINESS)

Transcribed by Evan Hughes
	

Words and Music by Evergreen Terrace
Arranged by Evergreen Terrace

Gtr I (Db Ab Db Gb Bb Eb) - 'Untitled'
Gtr II (Db Ab Db Gb Bb Eb) - 'Untitled'

  Intro
   Q=202
   D5                         A5  Bb5            F5  G5             F5  D5
  4/4
   Gtr I
      PM--------------------|   PM         PM--|   PM         PM--|   PM
   Q  E E E E E E   E E E E E E E E   +Q   E E E E E E   +Q   E E E E E E
||----------------|-----------------|------------------|-------------------|
||----------------|-----------------|------------------|-------------------|
||----------------|-----------------|------------------|-------------------|
||----------------|-----------------|------------------|-------------------|
||-0--------------|-----------7---8-|-(8)--------3---5-|-(5)--------3---0--|
||-0--0-0-0-0-0-0-|-0-0-0-0-0-7-0-8-|-(8)--8-8-8-3-3-5-|-(5)--5-5-5-3-3-0--|
|
|  Gtr II
|                                                                       ~
|  W                W                  W                  H.          E E
||----------------|-----------------|------------------|-------------------|
||----------------|-----------------|------------------|-------------------|
||----------------|-----------------|------------------|----------------7--|
||----------------|-----------------|------------------|-------------------|
||----------------|-----------------|------------------|----------------5--|
||----------------|-----------------|------------------|-------------------|


                                 A5  Bb5            F5  G5             F5    Bb5
       PM----------------------|   PM         PM--|   PM         PM--|    PM
  +Q   E E E E E E    E  E E E E E E E   +Q   E E E E E E   +Q   E E E E  E  E
|------------------|-------------------|------------------|--------------------|
|------------------|-------------------|------------------|--------------------|
|------------------|-------------------|------------------|--------------------|
|------------------|-------------------|------------------|--------------------|
|-(0)--------------|-------------7---8-|-(8)--------3---5-|-(5)--------3-----8-|
|-(0)--0-0-0-0-0-0-|--0--0-0-0-0-7-0-8-|-(8)--8-8-8-3-3-5-|-(5)--5-5-5-3--3--8-|
|
|  ~~~~~~~~~~~~~~~~~~~~~~~~~~~~~~~~~~~~~~~~~~~~~~~~~~~~~~~~~~~~~~~~~~~~~~~~~~
| +W                 +W                  +W                 +H.          +E  E
|------------------|-------------------|------------------|--------------------|
|------------------|-------------------|------------------|--------------------|
|-(7)--------------|-(7)---------------|-(7)--------------|-(7)----------(7)-3-|
|------------------|-------------------|------------------|--------------------|
|-(5)--------------|-(5)---------------|-(5)--------------|-(5)----------(5)-1-|
|------------------|-------------------|------------------|--------------------|


                                    D5/G                                   Bb5
      PM  PM  PM|     PM|   PM  PM|         PM  PM  PM|     PM|   PM   PM|
  +E  E E E E E E E   E E E E E E E E   +E  E E E E E E E   E E E E  E E E E
|-------------------|-----------------|-------------------|------------------|
|-------------------|-----------------|-------------------|------------------|
|-------------------|-----------------|-------------------|------------------|
|-------------------|---------------7-|-(7)---7---7-----7-|-----7----7-------|
|-(8)---8---8-----8-|-----8---8-----5-|-(5)---5---5-----5-|-----5----5-----8-|
|-(8)-8-8-8-8-8-8-8-|-8-8-8-8-8-8-8-5-|-(5)-5-5-5-5-5-5-5-|-5-5-5-5--5-5-5-8-|
|
| +W                  H       H         +W                  H        H
|-------------------|-----------------|-------------------|------------------|
|-------------------|-----------------|-------------------|------------------|
|-(3)---------------|-5-------7-------|-(7)---------------|-9-------10-------|
|-------------------|-----------------|-------------------|------------------|
|-(1)---------------|-3-------5-------|-(5)---------------|-7--------8-------|
|-------------------|-----------------|-------------------|------------------|


                                    D5/G
      PM  PM  PM|     PM|   PM  PM|
  +E  E E E E E E E   E E E E E E E E
|-------------------|-----------------|
|-------------------|-----------------|
|-------------------|-----------------|
|-------------------|---------------7-|
|-(8)---8---8-----8-|-----8---8-----5-|
|-(8)-8-8-8-8-8-8-8-|-8-8-8-8-8-8-8-5-|
|
|  W                  H       H
|-------------------|-----------------|
|-------------------|-----------------|
|--3----------------|-5-------7-------|
|-------------------|-----------------|
|--1----------------|-3-------5-------|
|-------------------|-----------------|


                                                 D5
      PM  PM  PM|
  +E  E E E E E E E   +H.                  +E    E
|-------------------|-------------------------------|
|-------------------|-------------------------------|
|-------------------|-------------------------------|
|-(7)---7---7-----7-|-(7)------------------(7)------|
|-(5)---5---5-----5-|-(5)------------------(5)---0--|
|-(5)-5-5-5-5-5-5-5-|-(5)------------------(5)---0--|
|
| +W                  +Q   S S S S S S S S  S  S E
|-------------------|-------------------------------|
|-------------------|-------------------------------|
|-(7)---------------|-(7)--7---7---7---7----7-------|
|-------------------|-------------------------------|
|-(5)---------------|-(5)--5---5---5---5----5----0--|
|-------------------|----------------------------0--|


 Chorus
  $
                             A5    Bb5            F5    G5             F5    D5
  Gtrs I, II
  +E  E Q  E E Q    E E Q  E E +E  E   +E  E Q  E E +E  E   +E  E Q  E E +E  E
|-----------------|------------------|--------------------|--------------------|
|-----------------|------------------|--------------------|--------------------|
|-----------------|------------------|--------------------|--------------------|
|-----------------|------------------|--------------------|--------------------|
|-(0)-0-0--0-0-0--|-0-0-0--0-7-(7)-8-|-(8)-8-8--8-3-(3)-5-|-(5)-5-5--5-3-(3)-0-|
|-(0)-0-0--0-0-0--|-0-0-0--0-7-(7)-8-|-(8)-8-8--8-3-(3)-5-|-(5)-5-5--5-3-(3)-0-|


                             A5    Bb5            F5    G5             F5    Bb5
  Gtr I
  +E  E Q  E E Q    E E Q  E E +E  E   +E  E Q  E E +E  E   +E  E Q  E E +E  E
|-----------------|------------------|--------------------|--------------------|
|-----------------|------------------|--------------------|--------------------|
|-----------------|------------------|--------------------|--------------------|
|-----------------|------------------|--------------------|--------------------|
|-(0)-0-0--0-0-0--|-0-0-0--0-7-(7)-8-|-(8)-8-8--8-3-(3)-5-|-(5)-5-5--5-3-(3)-8-|
|-(0)-0-0--0-0-0--|-0-0-0--0-7-(7)-8-|-(8)-8-8--8-3-(3)-5-|-(5)-5-5--5-3-(3)-8-|
|
| Gtr II
| +E  E Q  E E Q    E E Q  E E +E  E   +E  E Q  E E +E  E   +E  E Q  E E +E  E
|-----------------|------------------|--------------------|--------------------|
|-----------------|------------------|--------------------|--------------------|
|-----------------|------------------|--------------------|------------------3-|
|-----------------|------------------|--------------------|--------------------|
|-(0)-0-0--0-0-0--|-0-0-0--0-7-(7)-8-|-(8)-8-8--8-3-(3)-5-|-(5)-5-5--5-3-(3)-1-|
|-(0)-0-0--0-0-0--|-0-0-0--0-7-(7)-8-|-(8)-8-8--8-3-(3)-5-|-(5)-5-5--5-3-(3)---|


                                   D5/G
    +E  E Q  E E Q    E E Q  E E E E   +E  E Q  E E Q
||------------------|----------------|-----------------|
||o-----------------|----------------|-----------------|
||------------------|----------------|-----------------|
||------------------|--------------7-|-(7)-7-7--7-7-7--|
||o-(8)-8-8--8-8-8--|-8-8-8--8-8-8-5-|-(5)-5-5--5-5-5--|
||--(8)-8-8--8-8-8--|-8-8-8--8-8-8-5-|-(5)-5-5--5-5-5--|
|
|   +E  E Q  E E Q    E E Q  E E E E   +E  E Q  E E Q
||------------------|----------------|-----------------|
||o-----------------|----------------|-----------------|
||--(3)-3-3--3-3-3--|-5-5-5--7-7-7-7-|-(7)-7-7--7-7-7--|
||------------------|----------------|-----------------|
||o-(1)-1-1--1-1-1--|-3-3-3--5-5-5-5-|-(5)-5-5--5-5-5--|
||------------------|----------------|-----------------|


  1.                    2.
                                   To Coda
                  Bb5   N.C.
  E E Q   E  E  E E     E E E E +E  E     +Q
|--------------------||--------------------------|
|-------------------o||--------------------------|
|--------------------||--------------------------|
|-7-7-7---7--7--7----||--------------------------|
|-5-5-5---5--5--5-8-o||--------------------------|
|-5-5-5---5--5--5-8--||-5-3-0-3-(3)-5b5.5-(5)----|
|
| E E Q   E  E  E E     E E E E +E  E     +Q
|--------------------||--------------------------|
|-------------------o||--------------------------|
|-9-9-9--10-10-10-3--||--------------------------|
|--------------------||--------------------------|
|-7-7-7---8--8--8-1-o||--------------------------|
|--------------------||-5-3-0-3-(3)-5b5.5-(5)----|


   Verse
    D5 N.C.
       PM--------|         PM--------|         PM--------|
    Q  E E E E E E   S S E E E E E E E   S S E E E E E E E
||-----------------|-------------------|-------------------|
||o----------------|-------------------|-------------------|
||-----------------|-------------------|-------------------|
||-----------------|-------------------|-------------------|
||o-0--------------|-0h3p0-------------|-0h3p0-------------|
||--0--0-0-0-0-0-0-|-------0-0-0-0-0-0-|-------0-0-0-0-0-0-|
|
|      PM--------|         PM--------|         PM--------|
|   Q  E E E E E E   S S E E E E E E E   S S E E E E E E E
||-----------------|-------------------|-------------------|
||o----------------|-------------------|-------------------|
||-----------------|-------------------|-------------------|
||-----------------|-------------------|-------------------|
||o-0--------------|-0h3p0-------------|-0h3p0-------------|
||--0--0-0-0-0-0-0-|-------0-0-0-0-0-0-|-------0-0-0-0-0-0-|


  1.,2.,3.                4.
        PM      PM              PM      PM
  S S E E S S E E E E  4x S S E E S S E E E E
|----------------------||------------------------|
|---------------------o||------------------------|
|----------------------||-------------------7----|
|---------2h3p2--------||---------2h3p2----------|
|-0h3p0-----------3p0-o||-0h3p0-----------3-5----|
|-------0-------0------||-------0-------0--------|
|
|       PM      PM              PM      PM
| S S E E S S E E E E  4x S S E E S S E E E E
|----------------------||------------------------|
|---------------------o||------------------------|
|----------------------||-------------------3----|
|---------2h3p2--------||---------2h3p2----------|
|-0h3p0-----------3p0-o||-0h3p0-----------3-1----|
|-------0-------0------||-------0-------0--------|


  N.C.
  +E  E E E E E E E   +E  E E E E E E  E
|-------------------|--------------------|
|-------------------|--------------------|
|-(7)---7---7-9---7-|-(7)---7---7-9---10-|
|-------------------|--------------------|
|-(5)---5---5-7---5-|-(5)---5---5-7----8-|
|-----0---0-----0---|-----0---0-----0----|
|
| +E  E E E E E E E   +E  E E E E E E  E
|-------------------|--------------------|
|-------------------|--------------------|
|-(3)---3---3-5---3-|-(3)---3---3-5----5-|
|-------------------|--------------------|
|-(1)---1---1-3---1-|-(1)---1---1-3----3-|
|-----0---0-----0---|-----0---0-----0----|


   +E  E  E E  E  E E  E    +E  E  E E  E  E E E
|------------------------|-----------------------|
|------------------------|-----------------------|
|-(10)---10---10-12---10-|-(10)---10---10-12---7-|
|------------------------|-----------------------|
|--(8)----8----8-10----8-|--(8)----8----8-10---5-|
|------0----0-------0----|------0----0-------0---|
|
|  +E  E  E E  E  E E  E    +E  E  E E  E  E E E
|------------------------|-----------------------|
|------------------------|-----------------------|
|--(5)----5----5--3----5-|--(5)----5----5--3---3-|
|------------------------|-----------------------|
|--(3)----3----3--1----3-|--(3)----3----3--1---1-|
|------0----0-------0----|------0----0-------0---|


  +E  E E E E E E E   +E  E E E E E E  E
|-------------------|--------------------|
|-------------------|--------------------|
|-(7)---7---7-9---7-|-(7)---7---7-9---10-|
|-------------------|--------------------|
|-(5)---5---5-7---5-|-(5)---5---5-7----8-|
|-----0---0-----0---|-----0---0-----0----|
|
| +E  E E E E E E E   +E  E E E E E E  E
|-------------------|--------------------|
|-------------------|--------------------|
|-(3)---3---3-5---3-|-(3)---3---3-5----5-|
|-------------------|--------------------|
|-(1)---1---1-3---1-|-(1)---1---1-3----3-|
|-----0---0-----0---|-----0---0-----0----|


                                    D.S. al Coda
                                                D5
   +E  E  E E  E  E E  E    E  E  E  E  E  E  E E
|------------------------|------------------------|
|------------------------|------------------------|
|-(10)---10---10-12---14-|-14-14-14-14-14-14-14---|
|------------------------|------------------------|
|--(8)----8----8-10---12-|-12-12-12-12-12-12-12-0-|
|------0----0-------0----|----------------------0-|
|
|  +E  E  E E  E  E E  E    E  E  E  E  E  E  E E
|------------------------|------------------------|
|------------------------|------------------------|
|--(5)----5----5--7----7-|--7--7--7--7--7--7--7---|
|------------------------|------------------------|
|--(3)----3----3--5----5-|--5--5--5--5--5--5--5-0-|
|------0----0-------0----|----------------------0-|


   Verse
    &
    D5 N.C.
       PM--------|      PM--------|      PM--------|
    Q  E E E E E E   Q  E E E E E E   Q  E E E E E E
||-----------------|----------------|----------------|
||o----------------|----------------|----------------|
||-----------------|----------------|----------------|
||-----------------|----------------|----------------|
||o-0--------------|----------------|----------------|
||--0--0-0-0-0-0-0-|----0-0-0-0-0-0-|----0-0-0-0-0-0-|
|
|      PM--------|      PM--------|      PM--------|
|   Q  E E E E E E   Q  E E E E E E   Q  E E E E E E
||-----------------|----------------|----------------|
||o----------------|----------------|----------------|
||-----------------|----------------|----------------|
||-----------------|----------------|----------------|
||o-0--------------|----------------|----------------|
||--0--0-0-0-0-0-0-|----0-0-0-0-0-0-|----0-0-0-0-0-0-|


  1.,2.,3.                4.
        PM      PM              PM      PM
  S S E E S S E E E E  4x S S E E S S E E E E
|----------------------||----------------------|
|---------------------o||----------------------|
|----------------------||-------------------7--|
|---------2h3p2--------||---------2h3p2--------|
|-0h3p0-----------3p0-o||-0h3p0-----------3-5--|
|-------0-------0------||-------0-------0------|
|
|       PM      PM              PM      PM
| S S E E S S E E E E  4x S S E E S S E E E E
|----------------------||----------------------|
|---------------------o||----------------------|
|----------------------||-------------------3--|
|---------2h3p2--------||---------2h3p2--------|
|-0h3p0-----------3p0-o||-0h3p0-----------3-1--|
|-------0-------0------||-------0-------0------|


    N.C.
    +E  E E E E E E E   +E  E E E E E E  E
||--------------------|--------------------|
||o-------------------|--------------------|
||--(7)---7---7-9---7-|-(7)---7---7-9---10-|
||--------------------|--------------------|
||o-(5)---5---5-7---5-|-(5)---5---5-7----8-|
||------0---0-----0---|-----0---0-----0----|
|
|   +E  E E E E E E E   +E  E E E E E E  E
||--------------------|--------------------|
||o-------------------|--------------------|
||--(3)---3---3-5---3-|-(3)---3---3-5----5-|
||--------------------|--------------------|
||o-(1)---1---1-3---1-|-(1)---1---1-3----3-|
||------0---0-----0---|-----0---0-----0----|


   +E  E  E E  E  E E  E    +E  E  E E  E  E E E   3x
|------------------------|-------------------------||
|------------------------|------------------------o||
|-(10)---10---10-12---10-|-(10)---10---10-12---7---||
|------------------------|-------------------------||
|--(8)----8----8-10----8-|--(8)----8----8-10---5--o||
|------0----0-------0----|------0----0-------0-----||
|
|  +E  E  E E  E  E E  E    +E  E  E E  E  E E E   3x
|------------------------|-------------------------||
|------------------------|------------------------o||
|--(5)----5----5--3----5-|--(5)----5----5--3---3---||
|------------------------|-------------------------||
|--(3)----3----3--1----3-|--(3)----3----3--1---1--o||
|------0----0-------0----|------0----0-------0-----||


  +E  E E E E E E E   +E  E E E E E E  E
|-------------------|--------------------|
|-------------------|--------------------|
|-(7)---7---7-9---7-|-(7)---7---7-9---10-|
|-------------------|--------------------|
|-(5)---5---5-7---5-|-(5)---5---5-7----8-|
|-----0---0-----0---|-----0---0-----0----|
|
| +E  E E E E E E E   +E  E E E E E E  E
|-------------------|--------------------|
|-------------------|--------------------|
|-(3)---3---3-5---3-|-(3)---3---3-5----5-|
|-------------------|--------------------|
|-(1)---1---1-3---1-|-(1)---1---1-3----3-|
|-----0---0-----0---|-----0---0-----0----|


                                                D5
   +E  E  E E  E  E E  E    E  E  E  E  E  E  E E
|------------------------|------------------------|
|------------------------|------------------------|
|-(10)---10---10-12---14-|-14-14-14-14-14-14-14---|
|------------------------|------------------------|
|--(8)----8----8-10---12-|-12-12-12-12-12-12-12-0-|
|------0----0-------0----|----------------------0-|
|
|  +E  E  E E  E  E E  E    E  E  E  E  E  E  E E
|------------------------|------------------------|
|------------------------|------------------------|
|--(5)----5----5--7----7-|--7--7--7--7--7--7--7---|
|------------------------|------------------------|
|--(3)----3----3--5----5-|--5--5--5--5--5--5--5-0-|
|------0----0-------0----|----------------------0-|


 Chorus
                                A5    Bb5
  Gtrs I, II
  +E  E Q  E E Q    E E E +E  E E +E  E
|-----------------|---------------------|
|-----------------|---------------------|
|-----------------|---------------------|
|-----------------|---------------------|
|-(0)-0-0--0-0-0--|-0-0-0-(0)-0-7-(7)-8-|
|-(0)-0-0--0-0-0--|-0-0-0-(0)-0-7-(7)-8-|


                F5    G5                F5    D5
  +E  E E +E  E E +E  E   +E  E E +E  E E +E  E
|-----------------------|-----------------------|
|-----------------------|-----------------------|
|-----------------------|-----------------------|
|-----------------------|-----------------------|
|-(8)-8-8-(8)-8-3-(3)-5-|-(5)-5-5-(5)-5-3-(3)-0-|
|-(8)-8-8-(8)-8-3-(3)-5-|-(5)-5-5-(5)-5-3-(3)-0-|


                             A5    Bb5            F5    G5             F5    Bb5
  Gtr I
  +E  E Q  E E Q    E E Q  E E +E  E   +E  E Q  E E +E  E   +E  E Q  E E +E  E
|-----------------|------------------|--------------------|--------------------|
|-----------------|------------------|--------------------|--------------------|
|-----------------|------------------|--------------------|--------------------|
|-----------------|------------------|--------------------|--------------------|
|-(0)-0-0--0-0-0--|-0-0-0--0-7-(7)-8-|-(8)-8-8--8-3-(3)-5-|-(5)-5-5--5-3-(3)-8-|
|-(0)-0-0--0-0-0--|-0-0-0--0-7-(7)-8-|-(8)-8-8--8-3-(3)-5-|-(5)-5-5--5-3-(3)-8-|
|
| Gtr II
| +E  E Q  E E Q    E E Q  E E +E  E   +E  E Q  E E +E  E   +E  E Q  E E +E  E
|-----------------|------------------|--------------------|--------------------|
|-----------------|------------------|--------------------|--------------------|
|-----------------|------------------|--------------------|------------------3-|
|-----------------|------------------|--------------------|--------------------|
|-(0)-0-0--0-0-0--|-0-0-0--0-7-(7)-8-|-(8)-8-8--8-3-(3)-5-|-(5)-5-5--5-3-(3)-1-|
|-(0)-0-0--0-0-0--|-0-0-0--0-7-(7)-8-|-(8)-8-8--8-3-(3)-5-|-(5)-5-5--5-3-(3)---|


                                   D5/G
    +E  E Q  E E Q    E E Q  E E E E   +E  E Q  E E Q
||------------------|----------------|-----------------|
||o-----------------|----------------|-----------------|
||------------------|----------------|-----------------|
||------------------|--------------7-|-(7)-7-7--7-7-7--|
||o-(8)-8-8--8-8-8--|-8-8-8--8-8-8-5-|-(5)-5-5--5-5-5--|
||--(8)-8-8--8-8-8--|-8-8-8--8-8-8-5-|-(5)-5-5--5-5-5--|
|
|   +E  E Q  E E Q    E E Q  E E E E   +E  E Q  E E Q
||------------------|----------------|-----------------|
||o-----------------|----------------|-----------------|
||--(3)-3-3--3-3-3--|-5-5-5--7-7-7-7-|-(7)-7-7--7-7-7--|
||------------------|----------------|-----------------|
||o-(1)-1-1--1-1-1--|-3-3-3--5-5-5-5-|-(5)-5-5--5-5-5--|
||------------------|----------------|-----------------|


  1.                    2.
                  Bb5   N.C.
  E E Q   E  E  E E     E E E E +E  E     +Q
|--------------------||--------------------------|
|-------------------o||--------------------------|
|--------------------||--------------------------|
|-7-7-7---7--7--7----||--------------------------|
|-5-5-5---5--5--5-8-o||--------------------------|
|-5-5-5---5--5--5-8--||-5-3-0-3-(3)-5b5.5-(5)----|
|
| E E Q   E  E  E E     E E E E +E  E     +Q
|--------------------||--------------------------|
|-------------------o||--------------------------|
|-9-9-9--10-10-10-3--||--------------------------|
|--------------------||--------------------------|
|-7-7-7---8--8--8-1-o||--------------------------|
|--------------------||-5-3-0-3-(3)-5b5.5-(5)----|


   Breakdown
    D5                                   N.C.
    Gtrs I, II
    W          +W           +W           E E E E +E  E     +Q
||-----------|------------|------------|--------------------------||
||o----------|------------|------------|-------------------------o||
||-----------|------------|------------|--------------------------||
||-----------|------------|------------|--------------------------||
||o-0--------|-(0)--------|-(0)--------|-------------------------o||
||--0--------|-(0)--------|-(0)--------|-5-3-0-3-(3)-5b5.5-(5)----||


  D5                                 N.C.
  q  H.        W          W          E E E E +E  E     +Q
|------------|----------|----------|------------------------|
|------------|----------|----------|------------------------|
|------------|----------|----------|------------------------|
|------------|----------|----------|------------------------|
|-0----------|----------|----------|------------------------|
|-0----------|----------|----------|-5-3-0-3-(3)-5b5.5-(5)--|


    D5
       PM----------------------------------------|     PM------------|
    Q  E E E E E E   Q  E E E E E E   Q  E E E E E E   E E E E E E E E
||-----------------|----------------|----------------|------------------|
||o----------------|----------------|----------------|------------------|
||-----------------|----------------|----------------|------------------|
||-----------------|----------------|----------------|------------------|
||o-0--0-0-0-0-0-0-|----0-0-0-0-0-0-|----0-0-0-0-0---|-0-0-0---0-0-0-0--|
||--0--0-0-0-0-0-0-|----0-0-0-0-0-0-|----0-0-0-0-0---|-0-0-0---0-0-0-0--|


  Gtr I
  PM-------------------------------------------|
  Q  E E E E E E   Q  E E E E E E   Q  E E E E E E
|----------------|----------------|----------------|
|----------------|----------------|----------------|
|----------------|----------------|----------------|
|----------------|----------------|----------------|
|----0-0-0-0-0-0-|----0-0-0-0-0-0-|----0-0-0-0-0---|
|----0-0-0-0-0-0-|----0-0-0-0-0-0-|----0-0-0-0-0---|
|
| Gtr II
| PM-------------------------------------------|
| Q  E E E E E E   Q  E E E E E E   Q  E E E E E E
|----------------|----------------|----------------|
|----------------|----------------|----------------|
|----------------|----------------|----------------|
|----------------|----------------|----------------|
|----0-0-0-0-0-0-|----0-0-0-0-0-0-|----0-0-0-0-0---|
|----0-0-0-0-0-0-|----0-0-0-0-0-0-|----0-0-0-0-0---|


  1.                         2.
  N.C.
  E E E E +E  E     +Q       E E E E +E  E     +E  E
|-------------------------||-------------------------|
|------------------------o||-------------------------|
|-------------------------||-----------------------7-|
|-------------------------||-------------------------|
|------------------------o||-----------------------5-|
|-5-3-0-3-(3)-5b5.5-(5)---||-5-3-0-3-(3)-5b5.5-(5)---|
|
| E E E E +E  E     +Q       E E E E +E  E     +E  E
|-------------------------||-------------------------|
|------------------------o||-------------------------|
|-------------------------||-----------------------3-|
|-------------------------||-------------------------|
|------------------------o||-----------------------1-|
|-5-3-0-3-(3)-5b5.5-(5)---||-5-3-0-3-(3)-5b5.5-(5)---|


  N.C.
  +E  E E E E E E E   +E  E E E E E E  E
|-------------------|--------------------|
|-------------------|--------------------|
|-(7)---7---7-9---7-|-(7)---7---7-9---10-|
|-------------------|--------------------|
|-(5)---5---5-7---5-|-(5)---5---5-7----8-|
|-----0---0-----0---|-----0---0-----0----|
|
| +E  E E E E E E E   +E  E E E E E E  E
|-------------------|--------------------|
|-------------------|--------------------|
|-(3)---3---3-5---3-|-(3)---3---3-5----5-|
|-------------------|--------------------|
|-(1)---1---1-3---1-|-(1)---1---1-3----3-|
|-----0---0-----0---|-----0---0-----0----|


   +E  E  E E  E  E E  E    +E  E  E E  E  E E E
|------------------------|-----------------------|
|------------------------|-----------------------|
|-(10)---10---10-12---10-|-(10)---10---10-12---7-|
|------------------------|-----------------------|
|--(8)----8----8-10----8-|--(8)----8----8-10---5-|
|------0----0-------0----|------0----0-------0---|
|
|  +E  E  E E  E  E E  E    +E  E  E E  E  E E E
|------------------------|-----------------------|
|------------------------|-----------------------|
|--(5)----5----5--3----5-|--(5)----5----5--3---3-|
|------------------------|-----------------------|
|--(3)----3----3--1----3-|--(3)----3----3--1---1-|
|------0----0-------0----|------0----0-------0---|


  +E  E E E E E E E   +E  E E E E E E  E
|-------------------|--------------------|
|-------------------|--------------------|
|-(7)---7---7-9---7-|-(7)---7---7-9---10-|
|-------------------|--------------------|
|-(5)---5---5-7---5-|-(5)---5---5-7----8-|
|-----0---0-----0---|-----0---0-----0----|
|
| +E  E E E E E E E   +E  E E E E E E  E
|-------------------|--------------------|
|-------------------|--------------------|
|-(3)---3---3-5---3-|-(3)---3---3-5----5-|
|-------------------|--------------------|
|-(1)---1---1-3---1-|-(1)---1---1-3----3-|
|-----0---0-----0---|-----0---0-----0----|


                                                D5
   +E  E  E E  E  E E  E    E  E  E  E  E  E  E E
|------------------------|------------------------|
|------------------------|------------------------|
|-(10)---10---10-12---14-|-14-14-14-14-14-14-14---|
|------------------------|------------------------|
|--(8)----8----8-10---12-|-12-12-12-12-12-12-12-0-|
|------0----0-------0----|----------------------0-|
|
|  +E  E  E E  E  E E  E    E  E  E  E  E  E  E E
|------------------------|------------------------|
|------------------------|------------------------|
|--(5)----5----5--7----7-|--7--7--7--7--7--7--7---|
|------------------------|------------------------|
|--(3)----3----3--5----5-|--5--5--5--5--5--5--5-0-|
|------0----0-------0----|----------------------0-|


 Chorus
                                A5    Bb5
  Gtrs I, II
  +E  E Q  E E Q    E E E +E  E E +E  E
|-----------------|---------------------|
|-----------------|---------------------|
|-----------------|---------------------|
|-----------------|---------------------|
|-(0)-0-0--0-0-0--|-0-0-0-(0)-0-7-(7)-8-|
|-(0)-0-0--0-0-0--|-0-0-0-(0)-0-7-(7)-8-|


                F5    G5                F5    D5
  +E  E E +E  E E +E  E   +E  E E +E  E E +E  E
|-----------------------|-----------------------|
|-----------------------|-----------------------|
|-----------------------|-----------------------|
|-----------------------|-----------------------|
|-(8)-8-8-(8)-8-3-(3)-5-|-(5)-5-5-(5)-5-3-(3)-0-|
|-(8)-8-8-(8)-8-3-(3)-5-|-(5)-5-5-(5)-5-3-(3)-0-|


                             A5    Bb5            F5    G5             F5    Bb5
  Gtr I
  +E  E Q  E E Q    E E Q  E E +E  E   +E  E Q  E E +E  E   +E  E Q  E E +E  E
|-----------------|------------------|--------------------|--------------------|
|-----------------|------------------|--------------------|--------------------|
|-----------------|------------------|--------------------|--------------------|
|-----------------|------------------|--------------------|--------------------|
|-(0)-0-0--0-0-0--|-0-0-0--0-7-(7)-8-|-(8)-8-8--8-3-(3)-5-|-(5)-5-5--5-3-(3)-8-|
|-(0)-0-0--0-0-0--|-0-0-0--0-7-(7)-8-|-(8)-8-8--8-3-(3)-5-|-(5)-5-5--5-3-(3)-8-|
|
| Gtr II
| +E  E Q  E E Q    E E Q  E E +E  E   +E  E Q  E E +E  E   +E  E Q  E E +E  E
|-----------------|------------------|--------------------|--------------------|
|-----------------|------------------|--------------------|--------------------|
|-----------------|------------------|--------------------|------------------3-|
|-----------------|------------------|--------------------|--------------------|
|-(0)-0-0--0-0-0--|-0-0-0--0-7-(7)-8-|-(8)-8-8--8-3-(3)-5-|-(5)-5-5--5-3-(3)-1-|
|-(0)-0-0--0-0-0--|-0-0-0--0-7-(7)-8-|-(8)-8-8--8-3-(3)-5-|-(5)-5-5--5-3-(3)---|


                                   D5/G
    +E  E Q  E E Q    E E Q  E E E E   +E  E Q  E E Q
||------------------|----------------|-----------------|
||o-----------------|----------------|-----------------|
||------------------|----------------|-----------------|
||------------------|--------------7-|-(7)-7-7--7-7-7--|
||o-(8)-8-8--8-8-8--|-8-8-8--8-8-8-5-|-(5)-5-5--5-5-5--|
||--(8)-8-8--8-8-8--|-8-8-8--8-8-8-5-|-(5)-5-5--5-5-5--|
|
|   +E  E Q  E E Q    E E Q  E E E E   +E  E Q  E E Q
||------------------|----------------|-----------------|
||o-----------------|----------------|-----------------|
||--(3)-3-3--3-3-3--|-5-5-5--7-7-7-7-|-(7)-7-7--7-7-7--|
||------------------|----------------|-----------------|
||o-(1)-1-1--1-1-1--|-3-3-3--5-5-5-5-|-(5)-5-5--5-5-5--|
||------------------|----------------|-----------------|


  1.,2.,3.              4.
                  Bb5   N.C.
  E E Q   E  E  E E  4x E E E E +E  E     +Q
|--------------------||--------------------------|
|-------------------o||--------------------------|
|--------------------||--------------------------|
|-7-7-7---7--7--7----||--------------------------|
|-5-5-5---5--5--5-8-o||--------------------------|
|-5-5-5---5--5--5-8--||-5-3-0-3-(3)-5b5.5-(5)----|
|
| E E Q   E  E  E E  4x E E E E +E  E     +Q
|--------------------||--------------------------|
|-------------------o||--------------------------|
|-9-9-9--10-10-10-3--||--------------------------|
|--------------------||--------------------------|
|-7-7-7---8--8--8-1-o||--------------------------|
|--------------------||-5-3-0-3-(3)-5b5.5-(5)----|


                           D5
  Gtrs I, II
  E E E E +E  E     +Q     W          +W           +W           +W
|------------------------|----------|------------|------------|--------*|
|------------------------|----------|------------|------------|--------*|
|------------------------|----------|------------|------------|--------*|
|------------------------|----------|------------|------------|--------*|
|------------------------|-0--------|-(0)--------|-(0)--------|-(0)----*|
|-5-3-0-3-(3)-5b5.5-(5)--|-0--------|-(0)--------|-(0)--------|-(0)----*|



Duration Legend
---------------
W - whole; H - half; Q - quarter; E - 8th; S - 16th; T - 32nd; X - 64th; a - acciaccatura
+ - note tied to previous; . - note dotted; .. - note double dotted
Uncapitalized letters represent notes that are staccato (1/2 duration)
Irregular groupings are notated above the duration line
Duration letters will always appear directly above the note/fret number it represents the
duration for.  Duration letters with no fret number below them represent rests.  Multi-
bar rests are notated in the form Wxn, where n is the number of bars to rest for.  Low
melody durations appear below the staff

Tablature Legend
----------------
 h   - hammer-on
 p   - pull-off
 b   - bend
 pb  - pre-bend
 r   - bend release (if no number after the r, then release immediately)
 /\  - slide into or out of (from/to "nowhere")
 s   - legato slide
 S   - shift slide
 - natural harmonic
[n]  - artificial harmonic
n(n) - tapped harmonic
 ~   - vibrato
 tr  - trill
 T   - tap
 TP  - trem. picking
 PM  - palm muting
\n/  - tremolo bar dip; n = amount to dip
 \n  - tremolo bar down
 n/  - tremolo bar up
/n\  - tremolo bar inverted dip
 =   - hold bend; also acts as connecting device for hammers/pulls
 <> - volume swell (louder/softer)
 x   - on rhythm slash represents muted slash
 o   - on rhythm slash represents single note slash

Misc Legend
-----------
 |  - bar
||  - double bar
||o - repeat start
o|| - repeat end
*|  - double bar (ending)
 :  - bar (freetime)
 $  - Segno
 &  - Coda
Tempo markers -  = BPM(8/16=s8/s16), where s8 = swing 8ths, s16 = swing 16ths

Tap to rate this tab
 
# A B C D E F G H I J K L M N O P Q R S T U V W X Y Z