Song name
# A B C D E F G H I J K L M N O P Q R S T U V W X Y Z

Evergrey - Numb tab

Help us improve GuitareTab! Take a short survey!
     This would be the second solo of the song.  Im tabbing this out by memory, no 
guitars present. So, it's a little rough, but you can get the feel of it.  I'll 
revise it later.  If you need any clarification email me: chris.camm83@gmail.com

Artist: Evergrey
Album: Torn
Song: Numb (solo)

Notation:
^ bend
/ slide up
\ slide down
h hammer on
p pull off
v vibrato
~~ palm mute 
r rest


E||---------------------------------|---------------------------------|
B||---------------------------------|---------------------------------|
G||---------------------------------|--------------------12-----------|
D||-12-------r----12-------r--------|--14-----------r--------------r--|
A||----12p10-12------12p10-12-------|------14/12--10-12------14p12h14-|
E||---------------------------------|---------------------------------|
   
    (repeat bar twice)
E||---------------------------------|---------------------------------|
B||---------------------------------|---------------------------------|
G||---------------------------------|---------------------------------|
D||-12-------------v----------------|-14------------------------------|
A||----12p10-12p10-12---------------|----14/12--10-12-------10h12-\14-|
E||---------------------------------|-----------------10h12-----------|

                            v 
E||-14p12h14^v-----12-15----12------|-12-15-----------12--------------|
B||------------12--------15---------|----------12-12^--------v--------|
G||---------------------------------|---------------------12-14-------|
D||---------------------------------|---------------------------------|
A||---------------------------------|---------------------------------|
E||---------------------------------|---------------------------------|

E||-------15-17--19^19-17--12-15----|---------------------------------|
B||-v--17---------------------------|----15-----v---------------------|
G||-14------------------------------|-15----15--17--------------------|
D||---------------------------------|---------------------------------|
A||---------------------------------|---------------------------------|
E||---------------------------------|---------------------------------|

   (he holds the bend while picking)
E||-12^-12-12-12-12-12-12-12-12-12--|-------------------15h17p15------|
B||---------------------------------|----v--------15h17---------17p15-|
G||---------------------------------|-12h14-12h14---------------------|
D||---------------------------------|---------------------------------|
A||---------------------------------|---------------------------------|
E||---------------------------------|---------------------------------|

i'm not quite sure about this part
E||-------------15h17p15------------|---------------------------------|
B||-------15h17-----------17p15-----|---------------------------------|
G||-12h14---------------------------|---------------------------------|
D||---------------------------------|---------------------------------|
A||---------------------------------|---------------------------------|
E||---------------------------------|---------------------------------|



Related for Numb tab