Song name
# A B C D E F G H I J K L M N O P Q R S T U V W X Y Z

Everlast - Hot To Death tab

This is my first documented tab, I do my own by ear, this one's the first documented 
~GuptaKing~

/ = Slide

First Part/Intro/Pre-Verse:
e:------------------------------------------|
B:------------------------------------------|
G:------------------------------------------|
D:------------------------------------------|
A:-0-12-0-10-0-9-0-8---0-7-0-6-0-5-0-3-3-0--|
D:-0-12-0-10-0-9-0-8---0-7-0-6-0-5-0-3-3-0--|

Second Part/Verse:
e:-------------------------------------------------------|
B:-------------------------------------------------------|
G:-------------------------------------------------------|
D:-------------------------------------------------------|
A:-0-3-0-0-5-0-0-6-0-0-5-0-0-3-0-0-0-3-0-0-5-0-0-6-0-0-5-|
D:-0-3-0-0-5-0-0-6-0-0-5-0-0-3-0-0-0-3-0-0-5-0-0-6-0-0-5-|

(pre-chorus, add onto the end of last part)
e:-----------|
B:-----------|
G:-----------|
D:-----------|
A:-0-1-1-1-1-|
D:-0-1-1-1-1-|

Third Part/Chorus: (/3 or /12 works, you only need one, both sound the same)
e:-------------------------------------------|
B:----------(/3)--------------------(/3)-----|
G:-------------------------------------------|
D:---------(/12)--------------------(/12)----|
A:-0----------------1-1-1-1-0----------------|
D:-0----------------1-1-1-1-0----------------|

Organization:

Intro [x4]
Verse [x4]
Prechorus [x1]
Chorus [x2]
Intro [x2]
Verse [x2]
Prechorus [x1]
Chorus [x2]
Intro (Slowed) [x15]
Tap to rate this tab
# A B C D E F G H I J K L M N O P Q R S T U V W X Y Z