Song name
# A B C D E F G H I J K L M N O P Q R S T U V W X Y Z

Everlast - Letters Home From The Garden Of Stone tab

Intro:

e|-10-10-12~-14-14-12~--------------14-14-12~-|
B|-12-12-12~-15-15-12~-12(12)-12~~--15-15-12~-|
G|-12-12-12~-14-14-9~~-11-11--12~~--14-14-9~~-|
D|--------------------------------------------|
A|--------------------------------------------|
E|--------------------------------------------|





After Chorus Acoustic Verse:

e|------------------------------------------------|
B|------------------------------------------------|
G|---------9---------7---------7------------------|
D|-------9---------9---------7--------5^7^5-------|
A|-----7-----7--10-----10--5-----5/7--------7-----|
E|------------------------------------------------|

e|------------------------------------------------|
B|------------------------------------------------|
G|---------9---------7---------7------------------|
D|-------9---------9---------7--------------------|
A|-----7-----7--10-----10--5-----5/7--------------|
E|------------------------------------------------|

Ending:

e|----14---10---12--------------------------------|
B|------------------10^12------10/12--------------|
G|------------------------------------------------|
D|------------------------------------------------|
A|------------------------------------------------|
E|------------------------------------------------|


e|----14---10---12--------------------------------|
B|------------------10------12--------------------|
G|------------------------------------------------|
D|------------------------------------------------|
A|------------------------------------------------|
E|------------------------------------------------|


Made by [email] patsfanaverb@aol.com
Tap to rate this tab
 
# A B C D E F G H I J K L M N O P Q R S T U V W X Y Z