Song name
# A B C D E F G H I J K L M N O P Q R S T U V W X Y Z

Everlast - Kicking Away tab

-------------------------------------------------------------------------------
			     KICKING AWAY - Everlast
-------------------------------------------------------------------------------
Tabbed by:Zach
Email:zach.huey@valpo.edu

Tuning:Standard

e|-0-----0-----1-----3----|
B|-1-----0-----1-----1----|
G|-2-----2-----2-----2----|
D|-2-----2-----3-----3----|
A|-0-----0-----x-----x----|
E|-0-----0-----x-----x----|


Repeat this for most of the song. I will get to the little bridge part in the middle later!

Cheers!
Tap to rate this tab
 
# A B C D E F G H I J K L M N O P Q R S T U V W X Y Z