Song name
# A B C D E F G H I J K L M N O P Q R S T U V W X Y Z

Everlast - Maybe tab

This is the main stuff played throughout the whole song which uses the same chord.
The song is played as 1..23
  
e|--8------8---------------------------------|
B|--8---------8-----8---10-----10---6------6-|
G|------------7---------9-----------5--------|
D|------5---------5---------7-----------3----|
A|-------------------------------------------|
E|-------------------------------------------|

This part is the hamer on part play it however many times depending on the part.
e|-----------------------------------------|
B|-5h7h5-------5h7h5-----------------------|
G|-------7--5--------7--5----------5--7--5-|
D|-------------------------7----5----------|
A|-----------------------------------------|
E|-----------------------------------------|

This is the little solo im pretty sure its not fully correct so tell me about any changes.
e|------------------------------------0-|
B|-------3------------------------------|
G|-3--5-----5--6--5--6--2-2-2-0--0h2----|
D|--------------------------------------|
A|--------------------------------------|
E|--------------------------------------|

e|------------------------------------------------------------|
B|----------------------0--1--3--1--0--1--0-----1-------------|
G|--------0--2--3h5--3-----------------------2-----2--0--2--0-|
D|-2-2-2------------------------------------------------------|
A|------------------------------------------------------------|
E|------------------------------------------------------------|
Tap to rate this tab
# A B C D E F G H I J K L M N O P Q R S T U V W X Y Z