Song name
# A B C D E F G H I J K L M N O P Q R S T U V W X Y Z

Everlast - Sleeping Alone tab

e|----------------------------------|
B|-----5--2------------1--0---------|
G|--2-------------2---------0-------|
D|-----------0-3--------------------|
A|----------------------------------|
E|----------------------------------|


e|----------------------------------|
B|-----5--2------------1--0---------|
G|--2-------------2---------0-------|
D|-----------0-3--------------------|
A|----------------------------------|
E|----------------------------------|
Tap to rate this tab
 
# A B C D E F G H I J K L M N O P Q R S T U V W X Y Z