Song name
# A B C D E F G H I J K L M N O P Q R S T U V W X Y Z

Everlife - Now Or Never tab

(intro and verses)
E|----------3--------x--------5--------|
A|--2-------5--------5--------7--------|
D|--2(x5)---5(x5)----7--------7(x5)----|
G|-------------------7(x5)-------------|
B|-------------------------------------|
E|-------------------------------------|(x4)
Where's the balance?
Where's the common ground?
I've been hoping lately you'll come around
Time's changed me, brought me to my knees
Taught me how to break free

(pre-chorus)
E|--------------------------------7--------|
A|--3---------5---------3---------9--------|
D|--5---------7---------5---------9(x5)----|
G|--5(x5)-----7(x5)-----5(x5)--------------|
B|-----------------------------------------|
E|-----------------------------------------|
No more waisting precious life

(chorus)(listen for strumming)
E|----------3--------x--------5--------|
A|--2-------5--------5--------7--------|
D|--2-------5--------7--------7--------|
G|-------------------7-----------------|
B|-------------------------------------|
E|-------------------------------------|
Right now I've had enough
I'm on the edge of breaking down
The time has come for me to choose
E|--------------------|
A|--3---------5-------|
D|--5---------7-------|
G|--5---------7-------|
B|--------------------|
E|--------------------|
There's nothing to lose
E|----------3--------x--------5--------|
A|--2-------5--------5--------7--------|
D|--2-------5--------7--------7--------|
G|-------------------7-----------------|
B|-------------------------------------|
E|-------------------------------------|
It's now or never
It's now or never

(same as first verse and pre-chorus)
Here's your last chance
To make you something more
It could be better than it was before
You don't get it, you keep holding back
You're living in the past
I made my choice now, you decide

(chorus)(same as the first)

(bridge)
E|--5-----------5-----1----|
A|--7-----3-----7-----3----|
D|--7-----5-----7-----3----|
G|--------5----------------|
B|-------------------------|
E|-------------------------|
I'm stronger when I'm down on my knees
I lift my head and sing
In spite of all these things

(same to the end)
E|----------3--------x--------5--------|
A|--2-------5--------5--------7--------|
D|--2-------5--------7--------7--------|
G|-------------------7-----------------|
B|-------------------------------------|
E|-------------------------------------|

E|--------------------|
A|--3---------5-------|
D|--5---------7-------|
G|--5---------7-------|
B|--------------------|
E|--------------------|

E|----------3--------x--------5--------|
A|--2-------5--------5--------7--------|
D|--2-------5--------7--------7--------|
G|-------------------7-----------------|
B|-------------------------------------|
E|-------------------------------------|

(very end)
|-----------------|
|--5---------7----|
|--7---------9----|
|--7(x8)-----9----|
|-----------------|
|-----------------|
Tap to rate this tab
 
# A B C D E F G H I J K L M N O P Q R S T U V W X Y Z