Song name
# A B C D E F G H I J K L M N O P Q R S T U V W X Y Z

Evermore - Can You Hear Me Acoustic tab

Yo!

So I think this is one of Evermore's best ever songs but I couldn't find a single tab
it! This is the basic chords to the whole song including a few extras I've figured out.
all done by ear but if your guitar is tuned and you experiment with the strumming etc it 
out really nice acoustic! - good for around the campfire.

Enjoy!

Tuning: Standard.


INTRO

E-------0----------------0---------0------------|
A---9-99--9-9-----10-1010---10-1010-10-10-------|
D--9---------9--11---------7-------------7-9----|
G-----------------------------------------------|
B-----------------------------------------------|
E-----------------------------------------------|


VERSE x4 - Light chilled strumming or random picking =).

...First thing that i notice...


E--0------0------0------0------|
A--0------0------3------0------|
D--1------2------2------1------|
G--2------4------0------2------|
B--2------4------x------2------|
E--0------x------x------0------|


PRE-CHORUS x2

...As I call into...

E--0------0------0------0------|
A--0------0------3------0------|
D--1------2------2------2------|
G--2------4------0------2------|
B--2------4------x------0------|
E--0------x------x------0------|


VERSE x4

...The clock is running backwards...

E--0------0------0------0------|
A--0------0------3------0------|
D--1------2------2------1------|
G--2------4------0------2------|
B--2------4------x------2------|
E--0------x------x------0------|


PRE-CHORUS x2

...As I call into...

E--0------0------0------0------|
A--0------0------3------0------|
D--1------2------2------2------|
G--2------4------0------2------|
B--2------4------x------0------|
E--0------x------x------0------|


PRE-CHORUS x2 - Faster more aggressive strumming.

...YYOOOOOUUUUUUUUUUU!!!!!...

E--0------0------0------0------|
A--0------0------3------0------|
D--1------2------2------1------|
G--2------4------0------2------|
B--2------4------x------2------|
E--0------x------x------0------|

CHORUS x9 - Open strumming.

...Peace, be the day...

E--0------0------0------0------|
A--0------0------3------0------|
D--1------2------2------1------|
G--2------4------0------2------|
B--2------4------x------2------|
E--0------x------x------0------|


OUTRO x1


.As I call into...

E--0------0------0------0------|
A--0------0------3------0------|
D--1------2------2------2------|
G--2------4------0------2------|
B--2------4------x------0------|
E--0------x------x------0------|

CLOSING - picking or slow, light strumming.

...In closing the show...

E--0------0------1------0------|
A--0------0------1------0------|
D--2------2------2------2------|
G--2------4------3------2------|
B--0------4------3------0------|
E--0------x------1------0------|

..This is Donovan Earl...

E--0------1------3------3------|
A--0------1------3------3------|
D--6------2------4------4------|
G--4------3------5------5------|
B--0------3------5------5------|
E--0------1------3------3------|


This last part was odd, if you hold an A for the whole thing this also works, I was
to pick out the underlying chords.

Please rate and Enjoy!

Andy
Tap to rate this tab
# A B C D E F G H I J K L M N O P Q R S T U V W X Y Z