Song name
# A B C D E F G H I J K L M N O P Q R S T U V W X Y Z

Evermore - Afloat tab

E|-----------------------|---------------|
B|-----------------------|---------------|
G|-----------------------|---------------|
D|-----------------------|---------------|
A|-----3-4-3-------1-2-1-|-------3-4-4-2-|
E|-4-4-------4-2-2-------|-4-1-4---------| x2

 |-------------------------|-------------------|
 |-------0-2-0-4-2-0-2-0---|-----0-------------|
 |-1---1-----------------1-|---1---1-----------|
 |---4---------------------|-4-------4-3-3-3-4-|
 |-------------------------|-------------------|
 |-------------------------|-------------------|

 |-------------------------|-----------1-1-1-2-|
 |-------0-2-0-4-2-0-2-0---|-----0-2-0---------|
 |-1---1-----------------1-|---1---------------|
 |---4---------------------|-4-----------------|
 |-------------------------|-------------------|
 |-------------------------|-------------------|

 |-------7-9-7-11-9-7-9-7---|-----7----------------|
 |-9-7-9------------------9-|-7-9---9-7----------7-|
 |--------------------------|-----------10-10-10---|
 |--------------------------|----------------------|
 |--------------------------|----------------------|
 |--------------------------|----------------------|

 |-------7-9-7-11-9-7-9-7---|-----7-9-7-13-13-13-14-14-|
 |-9-7-9------------------9-|-7-9----------------------|
 |--------------------------|--------------------------|
 |--------------------------|--------------------------|
 |--------------------------|--------------------------|
 |--------------------------|--------------------------|
Tap to rate this tab
 
# A B C D E F G H I J K L M N O P Q R S T U V W X Y Z