Song name
# A B C D E F G H I J K L M N O P Q R S T U V W X Y Z

Evermore - Afloat tab

Love this song by Evermore!
It's a good yet easy guitar solo... Sadly it fades out just as it starts heating up :(

Solo:

e|------------------------------------------|
B|------------------------------------------|
G|------------------------------------------|
D|------------------------------------------| x2
A|-----3h4p3--------1h2p1--------3-4b--4/2b-|
E|-4-4--------4-2-2--------4-1-4------------|


e|----------------------------------------------|
B|----------------------------------------------|
G|-------4h6/8b-6-4-6-4----------4--------------|
D|-6p4h6----------------6b--4h6----6\3b--3-3/4b-|
A|----------------------------------------------|
E|----------------------------------------------|


e|----------------------------------------------|
B|-----------------------------------6b--6-7-7b-|
G|-------4h6/8b-6-4-6-4----------4h6------------|
D|-6p4h6----------------6b--4h6-----------------|
A|----------------------------------------------|
E|----------------------------------------------|


e|-------7h9-11b-9-7-9-7---------7--------------|
B|-9p7h9-----------------9b--7h9---9-6b--6-7-7b-|
G|----------------------------------------------|
D|----------------------------------------------|
A|----------------------------------------------|
E|----------------------------------------------|

e|-------7h9-11b-9-7-9-7---------7--9/13b-13-14-14b-|
B|-9p7h9-----------------9b--7h9--------------------|
G|--------------------------------------------------|
D|--------------------------------------------------|
A|--------------------------------------------------|
E|--------------------------------------------------|

_____________________________________________________________________________

END:

e|-------------------------------------------------------|
B|-7--6--------7--6---------------7--6--------7--6-------|
G|-------3b-----------4b--4h6p4----------6b-----------8b-|
D|-------------------------------------------------------|
A|-------------------------------------------------------|
E|-------------------------------------------------------|

e|-------13----14-|
B|-12-14----------|
G|----------------|
D|----------------|
A|----------------|
E|----------------|
Tap to rate this tab
 
# A B C D E F G H I J K L M N O P Q R S T U V W X Y Z