Song name
# A B C D E F G H I J K L M N O P Q R S T U V W X Y Z

Evermore - Everybodys Doing It tab

This is the intro; whats played by the keyboard. You should get the gist of it, I 
believe it sounds better on guitar...
So maybe you will like it better on guitar also :)

e-|-------------15-|
B-|----13-10-------|
G-|-10-------10----|
D-|----------------|
A-|----------------|
E-|----------------|

e-|-------------13-|
B-|----------------|
G-|----14----------|
D-|-12----15-12----|
A-|----------------|
E-|----------------|

e-|------------12--|
B-|----------------|
G-|----12-9--------|
D-|-10------10-----|
A-|----------------|
E-|----------------|

e-|-------------10-|
B-|----------------|
G-|----12-10-------|
D-|-10-------12----|
A-|----------------|
E-|----------------|
Tap to rate this tab
 
# A B C D E F G H I J K L M N O P Q R S T U V W X Y Z