Evermore - Hey Boys And Girls tab

*Important to note that even though this song has been tabbed
according to the live version, there isn't much difference 
to the CD version except a couple of extra parts played as improv.
This is 100% correct - it's a very easy song to play as a lot of it
is just repeating the same few chords.

______________________________________________________________________
INTRO SYNTH EFFECT:

e-|-----------------|
B-|-----------------|
G-|-----------------|
D-|------2-4--------|
A-|----4------REPEAT|
E-|--2--------------|

______________________________________________________________________

VERSE 1: ("We're interrupting transmission...")

e-|---------------------|
B-|---------------------|
G-|--4-4-4---2-2-2------| 
D-|--4-4-4---2-2-2---4--| X3
A-|--2-2-2---2-2-2---4--|
E-|------------------2--|

______________________________________________________________________

LEAD UP TO CHORUS: ("Welcome to the Show...")

e-|------------|--2------------------------------------------|----------------------------|
B-|------------|--3--REPEAT----------------------------------|----------------------------|
G-|--4---------|--2--------------------------------4---------|------------------6---------|
D-|--4--REPEAT-|------------(We're all set to go)--4--REPEAT-|-(so come on...)--6--REPEAT-|
A-|--2---------|-----------------------------------2---------|------------------4---------|
E-|------------|---------------------------------------------|----------------------------|

______________________________________________________________________

CHORUS: ("What do you wanna hear first?...")

e-|--2-2-------------------2-2--|
B-|--3-3---2-2-------------2-2--|
G-|--2-2---2-2---1-1-1-1---2-2--|
D-|--------2-2---2-2-2-2---4-4--| X3
A-|--------------2-2-2-2---4-4--|
E-|-----------------------------|


("So disconnect your brain...")

e-|--2--------|-----------|
B-|--3-REPEAT-|-----------|
G-|--2--------|--6--------|
D-|-----------|--6-REPEAT-|
A-|-----------|--4--------|
E-|-----------|-----------|


("Hey boys and girls...")

e-|--2-2---------|-----------|
B-|--3-3---------|-----------|
G-|--2-2---4-4---|-----------|
D-|--------4-4---|--4--------| X3
A-|--------2-2---|--4-REPEAT-|
E-|--------------|--2--------|

______________________________________________________________________

AFTER CHORUS, RIGHT BEFORE VERSE 2:

*These parts are only played live (different concerts).
e-|-----------------------------------------------------|
B-|-----------------------------------------------------|
G-|-----------------------------------------------------|
D-|-----------------------------------------------------|
A-|-----------------------------------------------------|
E-|--12h13p12h13p12h13p12h13p12-13/////slide down neck--|

or

e-|-------------------------------|
B-|-------------------------------|
G-|--2h4p2--------2-4bp2----------|
D-|--------4-2-4----------4-2-4b--|
A-|-------------------------------|
E-|-------------------------------|


______________________________________________________________________

VERSE 2: ("We've got the guns and the glory...")

e-|---------------------|
B-|---------------------|
G-|--4-4-4---2-2-2------|
D-|--4-4-4---2-2-2---4--| x3
A-|--2-2-2---2-2-2---4--|
E-|------------------2--|

______________________________________________________________________

REPEAT LEAD UP TO CHORUS
REPEAT CHORUS
______________________________________________________________________

BRIDGE: ("We've got celebrities...")

e-|--2-2---------|-----------|
B-|--3-3---------|-----------|
G-|--2-2---4-4---|-----------|
D-|--------4-4---|--4--------|
A-|--------2-2---|--4-REPEAT-|
E-|--------------|--2--------|

______________________________________________________________________

ENDING CHORUS: ("Hey boys and girls...")

*Play along with piano and the 'la la' bits.
e-|--2-2---------|-----------|
B-|--3-3---------|-----------|
G-|--2-2---4-4---|-----------|
D-|--------4-4---|--4--------| X
A-|--------2-2---|--4-REPEAT-|
E-|--------------|--2--------|


("Truth of the World...")

*Strumming hard and fast
e-|--2----------|-----------|
B-|--3-REPEAT---|-----------|
G-|--2----------|--6--------|
D-|-------------|--6--------|
A-|-------------|--4-REPEAT-|
E-|-------------|-----------|

______________________________________________________________________

LIVE OUTRO:

*This part is only played after the song finishes.
Strum up quick at the end chord for a nice finish.
e-|---------------------------|-----|
B-|---------------------------|--1--|
G-|---------------------------|--2--|
D-|---------------------------|--2--|
A-|--3b-4b-5bb----------------|-----|
E-|--------------4b-3b-1bbbb--|-----|

Tap to rate this tab
 
# A B C D E F G H I J K L M N O P Q R S T U V W X Y Z