Song name
# A B C D E F G H I J K L M N O P Q R S T U V W X Y Z

Evermore - Max Is Stable tab

A beautiful intro to a mad song. Crank up the reverb with slight delay
or tape echo, and voila :)

Intro:

e|----------3------------1-------------0---|
B|------1------------1-------------1-------|
G|----2---2--------2---2---------2---2-----|
D|--3------------0-------------------------| x2
A|-----------------------------0-----------|
E|-----------------------------------------|


e|----------7------------5-------------3------------4---|
B|------5------------6-------------5------------5-------|
G|----5---5--------5---5---------5---5--------4---4-----|
D|--7------------7-------------5------------6-----------| x2
A|------------------------------------------------------|
E|------------------------------------------------------|


e|----------2-|------|-----------1---|------|
B|------2-----|------|-------2-------|------|
G|----2---2---|Repeat|-----1---1-----|Repeat| x2
D|--4---------|------|---3-----------|------|
A|------------|------|---------------|------|
E|------------|------|---------------|------|


e|----------1-|------|-----------1---|------|
B|------1-----|------|-------3-------|------|
G|----2---2---|Repeat|-----2---2-----|Repeat| x3
D|--3---------|------|---3-----------|------| 
A|------------|------|---------------|------|
E|------------|------|---------------|------|


e|----------3-|------|-----------3---|------|
B|------3-----|------|-------5-------|------|
G|----4---4---|Repeat|-----5---5-----|Repeat| x4
D|--5---------|------|---5-----------|------|
A|------------|------|---------------|------|
E|------------|------|---------------|------|
Tap to rate this tab
 
# A B C D E F G H I J K L M N O P Q R S T U V W X Y Z