Song name
# A B C D E F G H I J K L M N O P Q R S T U V W X Y Z

Evert Taube - Fjriln Vingad Syns P Haga tab

E-----------------0-3-1-1-1-3-1-0-----------------3-0----------------------|
B-1----------1-1------------------1----------1-1------3-3-3-1-3-0-1--------|
G--2-0-0-0-0-----------------------2-0-0-0-0--------------0---------0------|
D--------0---2--------0---0--------------0---2--------3-----------2--------|
A----3----------3---------------3----3----------3--------------------3-----|
E--------------------------------------------------------------------------|

E-3-1-0-0-0-5-3-1---1-0-------3-1-0-------------------3-0-----------0-------|
B-----------------------3-3-3-------1-----------1-1-------3-3-3-1-3---1-----|
G-------------------------------------2-0-0-0-0-------------------------0---|
D-------------0---------0---0---------------0---2---------3---3-------2-----|
A-----3---4-------3---------------3-----3-----------3---------------------3-|
E---------------------------------------------------------------------------|

By: Alexander Lycke
Tap to rate this tab
# A B C D E F G H I J K L M N O P Q R S T U V W X Y Z