Guitaretab - guitar tabs
Song name
# A B C D E F G H I J K L M N O P Q R S T U V W X Y Z

Every Avenue - Think Of You Later tab

Song:   Think Of You Later
Artist: Every Avenue
Album:  Shh, Just Go With It

[guitar 1]
e------3-------0-------------3-----------------|
B--------3--------2------3/5----5--3-----------|
G--0-----------------------------------4-2-----|
D------------0---------------------------------|
A----------------------3-----------------------|
E----------------------------------------------| 2x

[guitar 2]
e-------------------------------------|
B-------------------------------------|
G--0-0--0-0-0-2h4p0-------------------|
D-------------------------------------|
A-------------------------------------|
E-------------------------------------| 2x
[play chords with power chords]

                   C
This might be my last chance
                   G
So maybe I should take it. 
                   EM
I just hope your listening, 
                    D
To everything Im saying. 
                    C
I miss the long drives, the car rides, 
      G
The bad fights, the good times. 
      F
The way you make me feel 
      D
will never leave my mind. 


C                          G
Think of you later in my empty room, 
      D          EM     D 
Where I, I will fall asleep alone. 
C                          G
Think of you later in my empty room, 
      D          EM     D      C
Where I, I will fall asleep alone. 

[guitar 2]
e-------------------------------------|
B-------------------------------------|
G--4-2p0-----0-0-0-2h4p0--------------|
D----------2--------------------------|
A-------------------------------------|
E-------------------------------------| 4x

               C
So, quit your crying 
                         G
And wipe the tears from your eyes. 
                    EM
Cause this is see you later, 
          D
Im not into goodbyes. 
           C
Watch the brake lights 
                        
as I leave your drive-way, 
    G 
The warm nights, will stay beside me, 
EM                 D
No matter where I go! 


[ Tab from: http://www.guitaretab.com/e/every-avenue/112138.html ]
C                          G
Think of you later in my empty room, 
      D          EM     D 
Where I, I will fall asleep alone. 
C                          G
Think of you later in my empty room, 
      D          EM     D      C
Where I, I will fall asleep alone. 


[guitar 1]
[im not totally sure about this part. but its something like this]
e----------------------------------------|
B--12------/-15------10-/12-\-10-\-8-----|
G-----x8--------x8-----------------------|
D--9-------/-12------7--/9----\7--\--5---|
A----------------------------------------|
E----------------------------------------| 2x

[guitar 2]
[just fool around with this]
e--------10--------10---10-8-7-------------10--|
B--7-8--------7-8----------------10-8h10p8-----|
G----------------------------------------------|
D----------------------------------------------|
A----------------------------------------------|
E----------------------------------------------|


                 C
Watch the brake lights 
                        
as I leave your drive-way, 
       G 
The warm nights, will stay beside me, 
EM                     D
No matter where I go! 


          D
Im not into goodbyes. 
           C
Watch the brake lights 
                        
as I leave your drive-way, 
    G 
The warm nights, will stay beside me, 
EM                 D
No matter where I go! 



C                          G
Think of you later in my empty room, 
      D          EM     D 
Where I, I will fall asleep alone. 
C                          G
Think of you later in my empty room, 
      D          EM     D 
Where I, I will fall asleep alone.
C                          G
Think of you later in my empty room, 
      D          EM     D 
Where I, I will fall asleep alone. 
C                          G
Think of you later in my empty room, 
      D          EM     D 
Where I, I will fall asleep alone.

[guitar 2]
e-------------------------------------|
B-------------------------------------|
G--4-2p0-----0-0-0-2h4p0--------------|
D----------2--------------------------|
A-------------------------------------|
E-------------------------------------| 4x
Related for Think Of You Later tab