Song name
# A B C D E F G H I J K L M N O P Q R S T U V W X Y Z

Every Avenue - Where Were You tab

Intro:
                                     1st      2nd time
e---------------------------------|-3--333-|--3----------------------------------|
B---------------------------------|-3--333-|--3----------------------------------|
G-2-2---------------------2-2-----|-0--333-|--0----------------------------------|
D-2-2--------^------------2-2-----|-0--000-|--0----------------------------------|
A-0-0---0-3-5b-p0--2-0----0-0---0-|--------|-------------------------------------|
E------3---------------3-------3--|--------|-------------------------------------|

Verse:
                                    1st
e---------------------------------|------------|---3-------------|
B---------------------------------|------------|---3----pm-------|
G--22-----2--22-----2-22-2-----2--|-2-----2----|--20---77777-----|
D--22--x--2--22--x--2-22-2--x--2--|-20-00-2----|--20---77777-ect-|
A--00--x--0--00--x--0-00-0--x--0--|-02-22-0----|--0----55555-----|
E---------------------------------|--3-33---3-0|-----------------|


Chorus:

e---------3--33-0--000-|--111111---00000000---|
B---------3--33-3--333-|--111111---00000000---|
G--2-2--220--00-2--222-|--222222---11111111---|
D--2-2--220--00-0--000-|--333333---22222222---|
A--0-0--002--22--------|--333333---22222222---|
E---------3--33--------|--111111---00000000---|

To lazy to figure out solo

part after solo
     ?
e--8888-----------------------------------------------------------|
B--6666-----------------------------------8-/-10------------------|
G----------5-/-7-\-5----2-----5--7--9-----7-/-9----5--7--9--------|
D----------5-/-7-\-5----2-----5--7--9--------------5--7--9--------|
A-----------------------------------------------------------------|
E-----------------------------------------------------------------|

This is an awesome riff.....I only have parts of it....please finish it if you can
I can't get it

e----------------------------------------|----------------------------------------|
B----------------------------------------|----------------------------------------|
G-------------------------------------x2-|-----------------5/7\5------------------|
D----------------------------------------|-----------------5/7\5------------------|
A------------3p0-3-5-7----------3p0-3----|----------3p0--3----------------3p0-3---|
E----------------------------------------|----------------------------------------|

e-----------------------------3--0---|
B-----------------------------3--3---|
G-----------------------------0--2---|
D-----------------------------0--0---|
A----------------3p0-3-5-7----2------|
E-----------------------------3------|

the end is the same as intro except for this simple little part....listen for it

e--3-------------|
B--3---------<5>-|
G--0---------<5>-|
D--0---pmpm------|
A--2---3-5-------|
E--3-------------|
Tap to rate this tab
 
# A B C D E F G H I J K L M N O P Q R S T U V W X Y Z