Song name
# A B C D E F G H I J K L M N O P Q R S T U V W X Y Z

Every Avenue - Tell Me Im A Wreck tab

This is my first tab and this is a really easy song to play. I am going to work on the 
of the song but i didn't have enough time to tab the rest of the song. I think this is 
but feel free to post any corrections if there are any to be made.


e|-------------------------------------------------8-8-8-5-5-5-5-5---------|
B|---------------------6---6-/10-11--10-8-6--------------------------------|
G|-----------------5-7---7-------------------------------------------------|
D|-----------------------------------------------3-------------------------|
A|--------3---3-h5--------------------------3-h5---------------------------|
D|--3-3-5---5--------------------------------------------------------------|


e|--8-8-8-3-3-3-3-3---------------------------------------------------------|
B|--------------------------------------------------------------------------|
G|--------------------------------------------------------------------------|
D|-----------------------------------3-3-3-3-5-5-5-5-----------------3-3-3-3|
A|-------------------3-3-3-3-5-5-5-5-----------------3-3-3-3-5-5-5-5--------|
D|--------------------------------------------------------------------------|


e|--------------------------------------------------------------------------|
B|--------------------------------------------------------------------------|
G|--------------------------------------------------------------------------|
D|-7-7-7-7~-----------------------------------------------------------------|
A|--------------------------------------------------------------------------|
D|--------------------------------------------------------------------------|

Guitar Legend-
h- hammer on
~- hold out
Tap to rate this tab
 
# A B C D E F G H I J K L M N O P Q R S T U V W X Y Z