Song name
# A B C D E F G H I J K L M N O P Q R S T U V W X Y Z

Every Avenue - Mindset tab

This is an awesome song to listen to and play also it is the Rhythm part and not the 
Lead part.

Tuning - standard (EAGDBe)

Intro

   C  G D E        C G D
e|-----------    --------|
B|-----------    --------|
D|-55---7----    -55---7-|
G|-55-5-7-2~- X3 -55-5-7-|
A|-33-5-5-2~-    -33-5-5-|
E|----3---0~-    ----3---|

Pre Verse

e|---------------------------|
B|---------------------------|
D|-55-555--------55-55---7---|
G|-55-555-55-555-55-55-2-7-5-|
A|-22-333-55-555-22-33-2-5-5-|
E|--------22-333-------0---3-|

Verse

e|---------------------------|
B|---------------------------|
D|-55-555---55-55---7--------|
G|-55-555---55-55-2-7-5------|
A|-22-333---22-33-2-5-5------|
E|----------------0---3------|

e|--------------------------|
B|--------------------------|
D|-55-555--7777777777777777-|
G|-55-555--7777777777777777-|
A|-22-333--5555555555555555-|
E|--------------------------|

Play the Pre verse again once then play the bit below

e|--------------------------------|
B|--------------------------------|
D|-55-555--------7777777777777777-|
G|-55-555-55-555-7777777777777777-|
A|-22-333-55-555-5555555555555555-|
E|--------22-333------------------|

Chorus

e|-----------------    ----------|
B|-----------------    ----------|
D|-555555----777---    55555---7-|
G|-555555-55-777-2- X3 55555-5-7-|
A|-333333-55-555-2-    33333-5-5-|
E|--------33-----0-    ------3---|

Pre-verse and verse structure are same as before


Play the chorus after.

e|-----------------    ----------|
B|-----------------    ----------|
D|-555555----777---    55555---7-|
G|-555555-55-777-2- X3 55555-5-7-|
A|-333333-55-555-2-    33333-5-5-|
E|--------33-----0-    ------3---|

This next part I don't know.

Bridge

e|----------|
B|----------|
D|-55555555-|
G|-55555555-| X4 (Play 32 times in all)
A|-33333333-|
E|----------|

Chorus

e|----------------------     -----------|
B|----------------------     -----------|
D|-999999----11-11-11---     99999---11-|
G|-999999-99-11-11-11-6- X3  99999-9-11-|
A|-777777-99-9--9--9--6-     77777-9-9--|
E|--------77----------4-     ------7----|

Play the chorus twice then play

e|-----------------------------|
B|-----------------------------|
D|-99-999---------99-99---11---|
G|-99-999-99-999--99-99-6-11-9-| X2
A|-66-777-99-999--66-77-6-9--9-|
E|--------66-777--------4----7-|

Thats the Rhythm part to the song, you have to work out the timing yourself, but this is 
the basic structure and what to play.
If there is anything wrong with it let me know pleasums. Enjoy playing  \m/
Tap to rate this tab
 
# A B C D E F G H I J K L M N O P Q R S T U V W X Y Z