Song name
# A B C D E F G H I J K L M N O P Q R S T U V W X Y Z

Every Avenue - Tie Me Down tab

----------------------------------------------------------------------------
                     "Tie Me Down" by Every Avenue
----------------------------------------------------------------------------


INTRO

Lead
Eb|---0----0----0----------------------------|
Bb|---3/5-3/5--3-0----0----0----------------|
Gb|-----------------2--2/4--2/4--0-2-0-------|
Db|------------------------------------2-0---|
Ab|------------------------------------------|
Eb|------------------------------------------|

Eb|---0----0---0------0-0-0--0--0--0--0------|
Bb|---3/53/5--3-0----8-8-8--10-10-10-10-----|
Gb|----------------2-------------------------|
Db|------------------------------------------|
Ab|------------------------------------------|
Eb|------------------------------------------|

Rhythm
Eb|--------------------------------|
Bb|--------------------------------|
Gb|--------------------------------|   x2
Db|---9---7-7----------------7-----|
Ab|---7---5-5---7-7---7-7-7--5-----|
Eb|-------------5-5---5-5-5--------|



VERSE 1



Rhythm

Eb|----------------------------------|
Bb|----------------------------------|
Gb|----------------------------------|   x4
Db|-------9-------7------------------|
Ab|---7-7-7---5-5-5-------7------7---|
Eb|-------------------5-5-5--5-5-5---|
      * *     * *     * *    * *

Lead (Halfway Through)

Eb|---7-5-5-5-5----|
Bb|---7-5-4-5-4----|
Gb|----------------|
Db|----------------|
Ab|----------------|
Eb|----------------|


Pre-Chorus



Rhythm

Eb|----------------------------------------------|
Bb|----------------------------------------------|
Gb|----------------------------------------------|
Db|----------1-1-1---------2-2-2---------4-4-4---|
Ab|---4-4-4--2-2-2-2-2-2--0-0-0--4-4-4--2-2-2---|
Eb|---2-2-2---------0-0-0---------2-2-2----------|

Lead
Eb|-------------------|
Bb|-------------------|
Gb|-------------------|
Db|-------------2-----|
Ab|-----4-7---2-------|
Eb|---5-----4-----4---|


Chorus

Rhythm  
Eb|--------------------------------------|
Bb|--------------------------------------|
Gb|--------------------------------------|    x4
Db|---2-2-2-2---------4-4-4-4-4-4-4-4----|
Ab|---0-0-0-0-2-2-2-2-2-2-2-2-2-2-2-2----|
Eb|-----------0-0-0-0--------------------|

Ill have the rest tabbed out by next week (November, 12)
Tap to rate this tab
# A B C D E F G H I J K L M N O P Q R S T U V W X Y Z