Song name
# A B C D E F G H I J K L M N O P Q R S T U V W X Y Z

Every Single Day - Echo tab

Echo by Every Single Day (Acoustic/Live Version)
I hear your voice OST
Tabbed by: Arvin G.
youtube.com/watch?v=fUFCcebtrf0 (see in action)

b = bend
s = slide

Standard Tuning

Guitar I (rhythm) = Chords (strum = down-up-down down-down-down-down-down)
Guitar II (Lead)  = Tabs   (strum = down. down-up-down )

Intro

   G                      Bm        Em
e|------------------------------------------------|
B|-11s12-12-11-11-8-8-7-7-8-8-7-------------------|
G|------------------------------9-7-9~------------|
D|-------------------------------------7s9-7-9~---|
A|------------------------------------------------|
E|------------------------------------------------|

   G                      Bm        Em
e|------------------------------------------------|
B|-11s12-12-11-11-8-8-7-7-8-8-7-------------------|
G|------------------------------9-7-9~--9b--------|
D|------------------------------------------------|
A|------------------------------------------------|
E|------------------------------------------------|

Verse

   G          Bm         Em
    oraen   gieoge~~     neon~~ 
e|------------------------------------------------|
B|---------------8------------8---------8---------|
G|----------------9----------9-------9---9--------|
D|-----------------9----------------9-9---9-------|
A|------------------------------------------------|
E|------------------------------------------------|
      
   G        Bm             Em
    nal gidarineun geotcheoreom~
e|------------------------------------------------|
B|-----------8----------------8---------8---------|
G|------------9--------------9-------9---9--------|
D|-------------9--------------------9-9---9-------|
A|------------------------------------------------|
E|------------------------------------------------|

         C                        D
    soksagideut~         naege dagawa~
e|-------8~--------8-------------10~--------10----|
B|-------8~------9---------------10~------10------|
G|-------9~-------9--------------11~----11--------|
D|-------10~---------------------12~--------------|
A|------------------------------------------------|
E|------------------------------------------------|

   G      Bm              Em
    geuriume      yeongwonhi~
e|------------------------------------------------|
B|--------8----------------8------------8---------|
G|---------9--------------9--------------9--------|
D|----------9------------9----------------9-------|
A|------------------------------------------------|
E|------------------------------------------------|

  G         Bm                   Em
   hollo namgyeojin~     geotcheoreom~
e|------------------------------------------------|
B|--------------8-------------------8-------8-----|
G|---------------9-----------------9-----9---9----|
D|----------------9---------------------9-9---9---|
A|------------------------------------------------|
E|------------------------------------------------|

        C                        D
 han georeumssik~        naege dagawa~
e|------8~----------8------------10~---10---------|
B|------8~--------8--8-----------10~-----10-------|
G|------9~---------9--9----------11~-------11-----|
D|------10~----------------------12~---------12---|
A|------------------------------------------------|
E|------------------------------------------------|


Interlude = [Play Intro]


        C                          D    
 han georeumssik~        naege dagawa~~~~~~~~~~
e|------8~---------8-------------10~-------------------10.--| -> (Rhythm and
B|------8~------------8----------10~----------10----10-10.--|   Lead)
G|------9~---------------9-------11~-11-----11----11---11.--|   pause/break.
D|------10~-----------------10---12~---12-12----12-----12.--|
A|----------------------------------------------------------|
E|----------------------------------------------------------|

        G          Bm         Em           C
 gipeun mam gipeun sok gipeun neoui moksorireul
e|------3----------7----------7------------8------|
B|------3----------7----------8------------8------| -> from here to bottom
G|-----------------7----------9------------9------|    all Lead strum pattern
D|------5----------9----------9------------10-----|    varies. (Ex. go top)
A|------5----------9----------7------------10-----|
E|------3----------7-----------------------8------|

        G          Bm         Em           C
 gipeun mam gipeun sok gipeun neoui moksoriga
e|------3----------7----------7------------8------|
B|------3----------7----------8------------8------|
G|------4----------7----------9------------9------|
D|------5----------9----------9------------10-----|
A|------5----------9----------7------------10-----|
E|------3----------7-----------------------8------|

        G   Bm     Em  C                G   Bm     Em  C
   deullyeo ~ deullyeo ~           deullyeo ~ deullyeo ~
e|------3---7------7---8----------------3---7------7---8------|
B|------3---7------8---8----------------3---7------8---8------|
G|------4---7------9---9----------------4---7------9---9------|
D|------5---9------9---10---------------5---9------9---10-----|
A|------5---9------7---10---------------5---9------7---10-----|
E|------3---7----------8----------------3---7----------8------|


Another Interlude = [Play Intro]


    G              Bm        Em
     oraen       gieoge~~    neon~~               __
e|------------------------------------------------  |
B|-------9--9--------9--9-------9--9-------9--9---  |
G|--11-11-11----11-11-11---11-11-11---11-11-11----  |
D|------------------------------------------------  |
A|------------------------------------------------  |
E|------------------------------------------------  |
                                                    |
   G        Bm                 Em                   |---> (Lead)
    nal gidarineun     geotcheoreom~                |    Palm mute
e|------------------------------------------------  |    this part.
B|-------9---9-------9--9-------9--9-------9-9----  |
G|--11-11-11----11-11-11---11-11-11---11-11-11----  |
D|------------------------------------------------  |
A|------------------------------------------------  |
E|------------------------------------------------ _|

         C                        D
    soksagideut~         naege dagawa~
e|-------8~-------8-8-----------10~---10-10-10-10. --> pause/break.
B|-------8~-----9--9-9----------10~---10-10-10-10.
G|-------9~-----9-----9---------11~---11-11-11-11.
D|-------10~----10--------------12~---12-12-12-12.
A|------------------------------------------------
E|------------------------------------------------

        G          Bm         Em           C                  __
 gipeun mam gipeun sok gipeun neoui moksorireul                 |
e|------3----------7----------7------------8------              |
B|------3----------7----------8------------8------              |
G|-----------------7----------9------------9------              |
D|------5----------9----------9------------10-----              |
A|------5----------9----------7------------10-----              |
E|------3----------7-----------------------8------              |
                                                                |
        G          Bm         Em           C                    |
 gipeun mam gipeun sok gipeun neoui moksoriga                   |
e|------3----------7----------7------------8------              |
B|------3----------7----------8------------8------              |_ Repeats
G|------4----------7----------9------------9------              |  Twice
D|------5----------9----------9------------10-----              |
A|------5----------9----------7------------10-----              |
E|------3----------7-----------------------8------              |
                                                                |
        G   Bm     Em  C                G   Bm     Em  C        |
   deullyeo ~ deullyeo ~           deullyeo ~ deullyeo ~        |
e|------3---7------7---8----------------3---7------7---8------  |
B|------3---7------8---8----------------3---7------8---8------  |
G|------4---7------9---9----------------4---7------9---9------  |
D|------5---9------9---10---------------5---9------9---10-----  |
A|------5---9------7---10---------------5---9------7---10-----  |
E|------3---7----------8----------------3---7----------8------ _|

END.

http://cafe.daum.net/everylove
Tap to rate this tab
# A B C D E F G H I J K L M N O P Q R S T U V W X Y Z